  0
SECTION
  2
HEADER
  9
$ACADVER
  1
AC1015
  9
$ACADMAINTVER
 70
    18
  9
$DWGCODEPAGE
  3
ANSI_1252
  9
$INSBASE
 10
0.0
 20
0.0
 30
0.0
  9
$EXTMIN
 10
-240.3707878761585
 20
-280.1913295907333
 30
-0.0015258207003583
  9
$EXTMAX
 10
312.0584114967594
 20
320.370804551722
 30
0.0000000349246037
  9
$LIMMIN
 10
0.0
 20
0.0
  9
$LIMMAX
 10
420.0
 20
297.0
  9
$ORTHOMODE
 70
     0
  9
$REGENMODE
 70
     1
  9
$FILLMODE
 70
     1
  9
$QTEXTMODE
 70
     0
  9
$MIRRTEXT
 70
     0
  9
$LTSCALE
 40
1.0
  9
$ATTMODE
 70
     1
  9
$TEXTSIZE
 40
2.5
  9
$TRACEWID
 40
1.0
  9
$TEXTSTYLE
  7
Standard
  9
$CLAYER
  8
0
  9
$CELTYPE
  6
ByLayer
  9
$CECOLOR
 62
   256
  9
$CELTSCALE
 40
1.0
  9
$DISPSILH
 70
     0
  9
$DIMSCALE
 40
1.0
  9
$DIMASZ
 40
2.5
  9
$DIMEXO
 40
0.625
  9
$DIMDLI
 40
3.75
  9
$DIMRND
 40
0.0
  9
$DIMDLE
 40
0.0
  9
$DIMEXE
 40
1.25
  9
$DIMTP
 40
0.0
  9
$DIMTM
 40
0.0
  9
$DIMTXT
 40
2.5
  9
$DIMCEN
 40
2.5
  9
$DIMTSZ
 40
0.0
  9
$DIMTOL
 70
     0
  9
$DIMLIM
 70
     0
  9
$DIMTIH
 70
     0
  9
$DIMTOH
 70
     0
  9
$DIMSE1
 70
     0
  9
$DIMSE2
 70
     0
  9
$DIMTAD
 70
     1
  9
$DIMZIN
 70
     8
  9
$DIMBLK
  1

  9
$DIMASO
 70
     1
  9
$DIMSHO
 70
     1
  9
$DIMPOST
  1

  9
$DIMAPOST
  1

  9
$DIMALT
 70
     0
  9
$DIMALTD
 70
     3
  9
$DIMALTF
 40
0.03937007874016
  9
$DIMLFAC
 40
1.0
  9
$DIMTOFL
 70
     1
  9
$DIMTVP
 40
0.0
  9
$DIMTIX
 70
     0
  9
$DIMSOXD
 70
     0
  9
$DIMSAH
 70
     0
  9
$DIMBLK1
  1

  9
$DIMBLK2
  1

  9
$DIMSTYLE
  2
ISO-25
  9
$DIMCLRD
 70
     0
  9
$DIMCLRE
 70
     0
  9
$DIMCLRT
 70
     0
  9
$DIMTFAC
 40
1.0
  9
$DIMGAP
 40
0.625
  9
$DIMJUST
 70
     0
  9
$DIMSD1
 70
     0
  9
$DIMSD2
 70
     0
  9
$DIMTOLJ
 70
     0
  9
$DIMTZIN
 70
     8
  9
$DIMALTZ
 70
     0
  9
$DIMALTTZ
 70
     0
  9
$DIMUPT
 70
     0
  9
$DIMDEC
 70
     2
  9
$DIMTDEC
 70
     2
  9
$DIMALTU
 70
     2
  9
$DIMALTTD
 70
     3
  9
$DIMTXSTY
  7
Standard
  9
$DIMAUNIT
 70
     0
  9
$DIMADEC
 70
     0
  9
$DIMALTRND
 40
0.0
  9
$DIMAZIN
 70
     0
  9
$DIMDSEP
 70
    44
  9
$DIMATFIT
 70
     3
  9
$DIMFRAC
 70
     0
  9
$DIMLDRBLK
  1

  9
$DIMLUNIT
 70
     2
  9
$DIMLWD
 70
    -2
  9
$DIMLWE
 70
    -2
  9
$DIMTMOVE
 70
     0
  9
$LUNITS
 70
     2
  9
$LUPREC
 70
     4
  9
$SKETCHINC
 40
1.0
  9
$FILLETRAD
 40
0.0
  9
$AUNITS
 70
     0
  9
$AUPREC
 70
     0
  9
$MENU
  1
.
  9
$ELEVATION
 40
0.0
  9
$PELEVATION
 40
0.0
  9
$THICKNESS
 40
0.0
  9
$LIMCHECK
 70
     0
  9
$CHAMFERA
 40
0.0
  9
$CHAMFERB
 40
0.0
  9
$CHAMFERC
 40
0.0
  9
$CHAMFERD
 40
0.0
  9
$SKPOLY
 70
     0
  9
$TDCREATE
 40
2460367.705740741
  9
$TDUCREATE
 40
2460367.414074074
  9
$TDUPDATE
 40
2460367.711817130
  9
$TDUUPDATE
 40
2460367.420150463
  9
$TDINDWG
 40
0.0035648148
  9
$TDUSRTIMER
 40
0.0035648148
  9
$USRTIMER
 70
     1
  9
$ANGBASE
 50
0.0
  9
$ANGDIR
 70
     0
  9
$PDMODE
 70
     0
  9
$PDSIZE
 40
0.0
  9
$PLINEWID
 40
0.0
  9
$SPLFRAME
 70
     0
  9
$SPLINETYPE
 70
     6
  9
$SPLINESEGS
 70
     8
  9
$HANDSEED
  5
37FF
  9
$SURFTAB1
 70
     6
  9
$SURFTAB2
 70
     6
  9
$SURFTYPE
 70
     6
  9
$SURFU
 70
     6
  9
$SURFV
 70
     6
  9
$UCSBASE
  2

  9
$UCSNAME
  2

  9
$UCSORG
 10
0.0
 20
0.0
 30
0.0
  9
$UCSXDIR
 10
1.0
 20
0.0
 30
0.0
  9
$UCSYDIR
 10
0.0
 20
1.0
 30
0.0
  9
$UCSORTHOREF
  2

  9
$UCSORTHOVIEW
 70
     0
  9
$UCSORGTOP
 10
0.0
 20
0.0
 30
0.0
  9
$UCSORGBOTTOM
 10
0.0
 20
0.0
 30
0.0
  9
$UCSORGLEFT
 10
0.0
 20
0.0
 30
0.0
  9
$UCSORGRIGHT
 10
0.0
 20
0.0
 30
0.0
  9
$UCSORGFRONT
 10
0.0
 20
0.0
 30
0.0
  9
$UCSORGBACK
 10
0.0
 20
0.0
 30
0.0
  9
$PUCSBASE
  2

  9
$PUCSNAME
  2

  9
$PUCSORG
 10
0.0
 20
0.0
 30
0.0
  9
$PUCSXDIR
 10
1.0
 20
0.0
 30
0.0
  9
$PUCSYDIR
 10
0.0
 20
1.0
 30
0.0
  9
$PUCSORTHOREF
  2

  9
$PUCSORTHOVIEW
 70
     0
  9
$PUCSORGTOP
 10
0.0
 20
0.0
 30
0.0
  9
$PUCSORGBOTTOM
 10
0.0
 20
0.0
 30
0.0
  9
$PUCSORGLEFT
 10
0.0
 20
0.0
 30
0.0
  9
$PUCSORGRIGHT
 10
0.0
 20
0.0
 30
0.0
  9
$PUCSORGFRONT
 10
0.0
 20
0.0
 30
0.0
  9
$PUCSORGBACK
 10
0.0
 20
0.0
 30
0.0
  9
$USERI1
 70
     0
  9
$USERI2
 70
     0
  9
$USERI3
 70
     0
  9
$USERI4
 70
     0
  9
$USERI5
 70
     0
  9
$USERR1
 40
0.0
  9
$USERR2
 40
0.0
  9
$USERR3
 40
0.0
  9
$USERR4
 40
0.0
  9
$USERR5
 40
0.0
  9
$WORLDVIEW
 70
     1
  9
$SHADEDGE
 70
     3
  9
$SHADEDIF
 70
    70
  9
$TILEMODE
 70
     1
  9
$MAXACTVP
 70
    48
  9
$PINSBASE
 10
0.0
 20
0.0
 30
0.0
  9
$PLIMCHECK
 70
     0
  9
$PEXTMIN
 10
0.0
 20
0.0
 30
0.0
  9
$PEXTMAX
 10
0.0
 20
0.0
 30
0.0
  9
$PLIMMIN
 10
0.0
 20
0.0
  9
$PLIMMAX
 10
12.0
 20
9.0
  9
$UNITMODE
 70
     0
  9
$VISRETAIN
 70
     1
  9
$PLINEGEN
 70
     0
  9
$PSLTSCALE
 70
     1
  9
$TREEDEPTH
 70
  3020
  9
$CMLSTYLE
  2
Standard
  9
$CMLJUST
 70
     0
  9
$CMLSCALE
 40
20.0
  9
$PROXYGRAPHICS
 70
     1
  9
$MEASUREMENT
 70
     1
  9
$CELWEIGHT
370
    -1
  9
$ENDCAPS
280
     0
  9
$JOINSTYLE
280
     0
  9
$LWDISPLAY
290
     0
  9
$INSUNITS
 70
     4
  9
$HYPERLINKBASE
  1

  9
$STYLESHEET
  1

  9
$XEDIT
290
     1
  9
$CEPSNTYPE
380
     0
  9
$PSTYLEMODE
290
     1
  9
$FINGERPRINTGUID
  2
{09ACAAAA-6FF3-F94C-B944-1C0D1F37C415}
  9
$VERSIONGUID
  2
{2591EAB3-3356-0549-99D6-53FC6A94D702}
  9
$EXTNAMES
290
     1
  9
$PSVPSCALE
 40
0.0
  9
$OLESTARTUP
290
     0
  0
ENDSEC
  0
SECTION
  2
CLASSES
  0
CLASS
  1
ACDBDICTIONARYWDFLT
  2
AcDbDictionaryWithDefault
  3
ObjectDBX Classes
 90
        0
280
     0
281
     0
  0
CLASS
  1
ACDBPLACEHOLDER
  2
AcDbPlaceHolder
  3
ObjectDBX Classes
 90
        0
280
     0
281
     0
  0
CLASS
  1
LAYOUT
  2
AcDbLayout
  3
ObjectDBX Classes
 90
        0
280
     0
281
     0
  0
CLASS
  1
DICTIONARYVAR
  2
AcDbDictionaryVar
  3
ObjectDBX Classes
 90
        0
280
     0
281
     0
  0
CLASS
  1
TABLESTYLE
  2
AcDbTableStyle
  3
ObjectDBX Classes
 90
     4095
280
     0
281
     0
  0
CLASS
  1
MATERIAL
  2
AcDbMaterial
  3
ObjectDBX Classes
 90
     1153
280
     0
281
     0
  0
CLASS
  1
VISUALSTYLE
  2
AcDbVisualStyle
  3
ObjectDBX Classes
 90
     4095
280
     0
281
     0
  0
CLASS
  1
SCALE
  2
AcDbScale
  3
ObjectDBX Classes
 90
     1153
280
     0
281
     0
  0
CLASS
  1
MLEADERSTYLE
  2
AcDbMLeaderStyle
  3
ACDB_MLEADERSTYLE_CLASS
 90
     4095
280
     0
281
     0
  0
CLASS
  1
CELLSTYLEMAP
  2
AcDbCellStyleMap
  3
ObjectDBX Classes
 90
     1152
280
     0
281
     0
  0
CLASS
  1
EXACXREFPANELOBJECT
  2
ExAcXREFPanelObject
  3
EXAC_ESW
 90
    33793
280
     0
281
     0
  0
CLASS
  1
NPOCOLLECTION
  2
AcDbImpNonPersistentObjectsCollection
  3
ObjectDBX Classes
 90
    33921
280
     0
281
     0
  0
CLASS
  1
LAYER_INDEX
  2
AcDbLayerIndex
  3
ObjectDBX Classes
 90
    32768
280
     0
281
     0
  0
CLASS
  1
SPATIAL_INDEX
  2
AcDbSpatialIndex
  3
ObjectDBX Classes
 90
    32768
280
     0
281
     0
  0
CLASS
  1
IDBUFFER
  2
AcDbIdBuffer
  3
ObjectDBX Classes
 90
    32768
280
     0
281
     0
  0
CLASS
  1
ACDBSECTIONVIEWSTYLE
  2
AcDbSectionViewStyle
  3
ObjectDBX Classes
 90
     1025
280
     0
281
     0
  0
CLASS
  1
ACDBDETAILVIEWSTYLE
  2
AcDbDetailViewStyle
  3
ObjectDBX Classes
 90
     1025
280
     0
281
     0
  0
CLASS
  1
XRECORD
  2
AcDbXrecord
  3
ObjectDBX Classes
 90
        0
280
     0
281
     0
  0
ENDSEC
  0
SECTION
  2
TABLES
  0
TABLE
  2
VPORT
  5
8
102
{ACAD_XDICTIONARY
360
370D
102
}
330
0
100
AcDbSymbolTable
 70
     1
  0
VPORT
  5
EA
330
8
100
AcDbSymbolTableRecord
100
AcDbViewportTableRecord
  2
*Active
 70
     0
 10
0.0
 20
0.0
 11
1.0
 21
1.0
 12
35.84381181030042
 22
20.08973748049436
 13
0.0
 23
0.0
 14
10.0
 24
10.0
 15
10.0
 25
10.0
 16
0.0
 26
0.0
 36
1.0
 17
0.0
 27
0.0
 37
0.0
 40
638.6434047284597
 41
0.9846153846153844
 42
50.0
 43
0.0
 44
0.0
 50
0.0
 51
0.0
 71
     0
 72
  1000
 73
     1
 74
     3
 75
     0
 76
     1
 77
     0
 78
     0
281
     0
 65
     1
110
0.0
120
0.0
130
0.0
111
1.0
121
0.0
131
0.0
112
0.0
122
1.0
132
0.0
 79
     0
146
0.0
1001
ACAD_NAV_VCDISPLAY
1070
     3
  0
ENDTAB
  0
TABLE
  2
LTYPE
  5
5
330
0
100
AcDbSymbolTable
 70
     1
  0
LTYPE
  5
14
330
5
100
AcDbSymbolTableRecord
100
AcDbLinetypeTableRecord
  2
ByBlock
 70
     0
  3

 72
    65
 73
     0
 40
0.0
  0
LTYPE
  5
15
330
5
100
AcDbSymbolTableRecord
100
AcDbLinetypeTableRecord
  2
ByLayer
 70
     0
  3

 72
    65
 73
     0
 40
0.0
  0
LTYPE
  5
16
330
5
100
AcDbSymbolTableRecord
100
AcDbLinetypeTableRecord
  2
Continuous
 70
     0
  3
Solid line
 72
    65
 73
     0
 40
0.0
  0
ENDTAB
  0
TABLE
  2
LAYER
  5
2
102
{ACAD_XDICTIONARY
360
1FF
102
}
330
0
100
AcDbSymbolTable
 70
     1
  0
LAYER
  5
10
102
{ACAD_XDICTIONARY
360
13C
102
}
330
2
100
AcDbSymbolTableRecord
100
AcDbLayerTableRecord
  2
0
 70
     0
 62
     7
  6
Continuous
370
    -3
390
F
  0
ENDTAB
  0
TABLE
  2
STYLE
  5
3
330
0
100
AcDbSymbolTable
 70
     1
  0
STYLE
  5
11
330
3
100
AcDbSymbolTableRecord
100
AcDbTextStyleTableRecord
  2
Standard
 70
     0
 40
0.0
 41
1.0
 50
0.0
 71
     0
 42
2.5
  3
arial.ttf
  4

1001
ACAD
1000
Arial
1071
       34
  0
ENDTAB
  0
TABLE
  2
VIEW
  5
6
330
0
100
AcDbSymbolTable
 70
     0
  0
ENDTAB
  0
TABLE
  2
UCS
  5
7
330
0
100
AcDbSymbolTable
 70
     0
  0
ENDTAB
  0
TABLE
  2
APPID
  5
9
330
0
100
AcDbSymbolTable
 70
     8
  0
APPID
  5
12
330
9
100
AcDbSymbolTableRecord
100
AcDbRegAppTableRecord
  2
ACAD
 70
     0
  0
APPID
  5
9E
330
9
100
AcDbSymbolTableRecord
100
AcDbRegAppTableRecord
  2
ACAD_PSEXT
 70
     0
  0
APPID
  5
133
330
9
100
AcDbSymbolTableRecord
100
AcDbRegAppTableRecord
  2
AcadAnnoPO
 70
     0
  0
APPID
  5
134
330
9
100
AcDbSymbolTableRecord
100
AcDbRegAppTableRecord
  2
AcadAnnotative
 70
     0
  0
APPID
  5
135
330
9
100
AcDbSymbolTableRecord
100
AcDbRegAppTableRecord
  2
ACAD_DSTYLE_DIMJAG
 70
     0
  0
APPID
  5
136
330
9
100
AcDbSymbolTableRecord
100
AcDbRegAppTableRecord
  2
ACAD_DSTYLE_DIMTALN
 70
     0
  0
APPID
  5
165
330
9
100
AcDbSymbolTableRecord
100
AcDbRegAppTableRecord
  2
ACAD_MLEADERVER
 70
     0
  0
APPID
  5
217
330
9
100
AcDbSymbolTableRecord
100
AcDbRegAppTableRecord
  2
ACAD_NAV_VCDISPLAY
 70
     0
  0
ENDTAB
  0
TABLE
  2
DIMSTYLE
  5
A
330
0
100
AcDbSymbolTable
 70
     1
100
AcDbDimStyleTable
 71
     0
  0
DIMSTYLE
105
27
330
A
100
AcDbSymbolTableRecord
100
AcDbDimStyleTableRecord
  2
ISO-25
 70
     0
 41
2.5
 42
0.625
 43
3.75
 44
1.25
 73
     0
 74
     0
 77
     1
 78
     8
140
2.5
141
2.5
143
0.03937007874016
147
0.625
171
     3
172
     1
271
     2
272
     2
274
     3
278
    44
283
     0
284
     8
340
11
  0
ENDTAB
  0
TABLE
  2
BLOCK_RECORD
  5
1
330
0
100
AcDbSymbolTable
 70
     7
  0
BLOCK_RECORD
  5
1F
102
{ACAD_XDICTIONARY
360
1CE
102
}
330
1
100
AcDbSymbolTableRecord
100
AcDbBlockTableRecord
  2
*Model_Space
340
22
  0
BLOCK_RECORD
  5
D2
102
{ACAD_XDICTIONARY
360
36C0
102
}
330
1
100
AcDbSymbolTableRecord
100
AcDbBlockTableRecord
  2
*Paper_Space
340
D3
  0
BLOCK_RECORD
  5
D6
102
{ACAD_XDICTIONARY
360
36C2
102
}
330
1
100
AcDbSymbolTableRecord
100
AcDbBlockTableRecord
  2
*Paper_Space0
340
D7
  0
BLOCK_RECORD
  5
3491
330
1
100
AcDbSymbolTableRecord
100
AcDbBlockTableRecord
  2
ACW155-Front
340
0
102
{BLKREFS
331
36B6
102
}
  0
BLOCK_RECORD
  5
34FC
330
1
100
AcDbSymbolTableRecord
100
AcDbBlockTableRecord
  2
ACW155-Left
340
0
102
{BLKREFS
331
36B7
102
}
  0
BLOCK_RECORD
  5
3512
330
1
100
AcDbSymbolTableRecord
100
AcDbBlockTableRecord
  2
ACW155-Right
340
0
102
{BLKREFS
331
36B8
102
}
  0
BLOCK_RECORD
  5
3528
330
1
100
AcDbSymbolTableRecord
100
AcDbBlockTableRecord
  2
ACW155-Top
340
0
102
{BLKREFS
331
36B9
102
}
  0
BLOCK_RECORD
  5
357B
330
1
100
AcDbSymbolTableRecord
100
AcDbBlockTableRecord
  2
ACW155-Bottom
340
0
102
{BLKREFS
331
36BA
102
}
  0
BLOCK_RECORD
  5
35B2
330
1
100
AcDbSymbolTableRecord
100
AcDbBlockTableRecord
  2
ACW155-ISO
340
0
102
{BLKREFS
331
36BB
102
}
  0
ENDTAB
  0
ENDSEC
  0
SECTION
  2
BLOCKS
  0
BLOCK
  5
20
330
1F
100
AcDbEntity
  8
0
100
AcDbBlockBegin
  2
*Model_Space
 70
     0
 10
0.0
 20
0.0
 30
0.0
  3
*Model_Space
  1

  0
ENDBLK
  5
21
330
1F
100
AcDbEntity
  8
0
100
AcDbBlockEnd
  0
BLOCK
  5
D4
330
D2
100
AcDbEntity
 67
     1
  8
0
100
AcDbBlockBegin
  2
*Paper_Space
 70
     0
 10
0.0
 20
0.0
 30
0.0
  3
*Paper_Space
  1

  0
ENDBLK
  5
D5
330
D2
100
AcDbEntity
 67
     1
  8
0
100
AcDbBlockEnd
  0
BLOCK
  5
D8
330
D6
100
AcDbEntity
 67
     1
  8
0
100
AcDbBlockBegin
  2
*Paper_Space0
 70
     0
 10
0.0
 20
0.0
 30
0.0
  3
*Paper_Space0
  1

  0
ENDBLK
  5
D9
330
D6
100
AcDbEntity
 67
     1
  8
0
100
AcDbBlockEnd
  0
BLOCK
  5
3492
330
3491
100
AcDbEntity
  8
0
100
AcDbBlockBegin
  2
ACW155-Front
 70
     0
 10
0.0
 20
0.0
 30
0.0
  3
ACW155-Front
  1

  0
LINE
  5
3494
330
3491
100
AcDbEntity
  8
0
100
AcDbLine
 10
-74.50031802632422
 20
154.5
 30
0.0
 11
-72.00031802632422
 21
154.5
 31
0.0
  0
LINE
  5
3495
330
3491
100
AcDbEntity
  8
0
100
AcDbLine
 10
-74.50031802632421
 20
39.5
 30
0.0
 11
-74.50031802632421
 21
104.5
 31
0.0
  0
LINE
  5
3496
330
3491
100
AcDbEntity
  8
0
100
AcDbLine
 10
-74.50031802632421
 20
104.5
 30
0.0
 11
-74.50031802632422
 21
154.5
 31
0.0
  0
LINE
  5
3497
330
3491
100
AcDbEntity
  8
0
100
AcDbLine
 10
-72.00031802632422
 20
154.5
 30
0.0
 11
-72.00031802632421
 21
104.5
 31
0.0
  0
LINE
  5
3498
330
3491
100
AcDbEntity
  8
0
100
AcDbLine
 10
-72.00031802632421
 20
104.5
 30
0.0
 11
-72.00031802632421
 21
39.5
 31
0.0
  0
LINE
  5
3499
330
3491
100
AcDbEntity
  8
0
100
AcDbLine
 10
-72.00031802632421
 20
39.49999999999999
 30
0.0
 11
-74.50031802632421
 21
39.49999999999999
 31
0.0
  0
LINE
  5
349A
330
3491
100
AcDbEntity
  8
0
100
AcDbLine
 10
-74.50031802632421
 20
104.5
 30
0.0
 11
-72.00031802632421
 21
104.5
 31
0.0
  0
LINE
  5
349B
330
3491
100
AcDbEntity
  8
0
100
AcDbLine
 10
-69.50031802632421
 20
154.5
 30
0.0
 11
-72.00031802632421
 21
154.5
 31
0.0
  0
LINE
  5
349C
330
3491
100
AcDbEntity
  8
0
100
AcDbLine
 10
73.99968197367581
 20
154.5
 30
0.0
 11
71.49968197367581
 21
154.5
 31
0.0
  0
LINE
  5
349D
330
3491
100
AcDbEntity
  8
0
100
AcDbLine
 10
71.49968197367581
 20
9.173000000000017
 30
0.0
 11
73.99968197367581
 21
9.173000000000016
 31
0.0
  0
LINE
  5
349E
330
3491
100
AcDbEntity
  8
0
100
AcDbLine
 10
70.99968197367579
 20
5.500000000000015
 30
0.0
 11
70.99968197367579
 21
8.000000000000015
 31
0.0
  0
ARC
  5
349F
330
3491
100
AcDbEntity
  8
0
100
AcDbCircle
 10
-69.5003180263242
 20
4.999999999999978
 30
0.0
 40
5.0
100
AcDbArc
 50
180.0
 51
270.0
  0
ARC
  5
34A0
330
3491
100
AcDbEntity
  8
0
100
AcDbCircle
 10
71.49968197367581
 20
4.99999999999998
 30
0.0
 40
4.999999999999999
100
AcDbArc
 50
270.0
 51
0.0
  0
ARC
  5
34A1
330
3491
100
AcDbEntity
  8
0
100
AcDbCircle
 10
71.49968197367581
 20
4.99999999999998
 30
0.0
 40
2.499999999999999
100
AcDbArc
 50
270.0
 51
0.0
  0
LINE
  5
34A2
330
3491
100
AcDbEntity
  8
0
100
AcDbLine
 10
-72.00031802632421
 20
9.173000000000016
 30
0.0
 11
-69.50031802632421
 21
9.173000000000017
 31
0.0
  0
ARC
  5
34A3
330
3491
100
AcDbEntity
  8
0
100
AcDbCircle
 10
-69.5003180263242
 20
4.99999999999998
 30
0.0
 40
2.499999999999999
100
AcDbArc
 50
180.0
 51
270.0
  0
LINE
  5
34A4
330
3491
100
AcDbEntity
  8
0
100
AcDbLine
 10
-69.00031802632421
 20
8.000000000000015
 30
0.0
 11
-69.00031802632421
 21
5.500000000000015
 31
0.0
  0
LINE
  5
34A5
330
3491
100
AcDbEntity
  8
0
100
AcDbLine
 10
71.49968197367581
 20
154.5
 30
0.0
 11
-69.50031802632421
 21
154.5
 31
0.0
  0
LINE
  5
34A6
330
3491
100
AcDbEntity
  8
0
100
AcDbLine
 10
70.9996819736758
 20
5.499999999999979
 30
0.0
 11
-69.00031802632419
 21
5.499999999999979
 31
0.0
  0
LINE
  5
34A7
330
3491
100
AcDbEntity
  8
0
100
AcDbLine
 10
70.9996819736758
 20
2.999999999999979
 30
0.0
 11
-69.00031802632419
 21
2.999999999999979
 31
0.0
  0
LINE
  5
34A8
330
3491
100
AcDbEntity
  8
0
100
AcDbLine
 10
73.99968197367582
 20
154.5
 30
0.0
 11
76.49968197367582
 21
154.5
 31
0.0
  0
LINE
  5
34A9
330
3491
100
AcDbEntity
  8
0
100
AcDbLine
 10
70.99968197367579
 20
9.173000000000016
 30
0.0
 11
71.49968197367581
 21
9.173000000000007
 31
0.0
  0
LINE
  5
34AA
330
3491
100
AcDbEntity
  8
0
100
AcDbLine
 10
76.49968197367582
 20
154.5
 30
0.0
 11
76.49968197367581
 21
104.5
 31
0.0
  0
LINE
  5
34AB
330
3491
100
AcDbEntity
  8
0
100
AcDbLine
 10
76.49968197367581
 20
104.5
 30
0.0
 11
76.49968197367582
 21
39.5
 31
0.0
  0
LINE
  5
34AC
330
3491
100
AcDbEntity
  8
0
100
AcDbLine
 10
76.49968197367582
 20
39.49999999999999
 30
0.0
 11
76.49968197367581
 21
4.999999999999977
 31
0.0
  0
LINE
  5
34AD
330
3491
100
AcDbEntity
  8
0
100
AcDbLine
 10
70.99968197367579
 20
8.000000000000014
 30
0.0
 11
70.99968197367579
 21
9.173000000000016
 31
0.0
  0
LINE
  5
34AE
330
3491
100
AcDbEntity
  8
0
100
AcDbLine
 10
70.9996819736758
 20
2.999999999999979
 30
0.0
 11
70.9996819736758
 21
5.499999999999979
 31
0.0
  0
LINE
  5
34AF
330
3491
100
AcDbEntity
  8
0
100
AcDbLine
 10
76.49968197367582
 20
39.49999999999999
 30
0.0
 11
73.99968197367582
 21
39.49999999999999
 31
0.0
  0
LINE
  5
34B0
330
3491
100
AcDbEntity
  8
0
100
AcDbLine
 10
73.99968197367582
 20
39.49999999999999
 30
0.0
 11
73.99968197367581
 21
4.999999999999977
 31
0.0
  0
LINE
  5
34B1
330
3491
100
AcDbEntity
  8
0
100
AcDbLine
 10
25.99968197367581
 20
2.499999999999993
 30
0.0
 11
71.49968197367581
 21
2.499999999999979
 31
0.0
  0
LINE
  5
34B2
330
3491
100
AcDbEntity
  8
0
100
AcDbLine
 10
25.99968197367581
 20
0.0
 30
0.0
 11
25.99968197367581
 21
2.499999999999993
 31
0.0
  0
LINE
  5
34B3
330
3491
100
AcDbEntity
  8
0
100
AcDbLine
 10
71.49968197367581
 20
0.0
 30
0.0
 11
25.99968197367581
 21
0.0
 31
0.0
  0
LINE
  5
34B4
330
3491
100
AcDbEntity
  8
0
100
AcDbLine
 10
73.99968197367581
 20
104.5
 30
0.0
 11
73.99968197367582
 21
154.5
 31
0.0
  0
LINE
  5
34B5
330
3491
100
AcDbEntity
  8
0
100
AcDbLine
 10
76.49968197367581
 20
104.5
 30
0.0
 11
73.99968197367581
 21
104.5
 31
0.0
  0
LINE
  5
34B6
330
3491
100
AcDbEntity
  8
0
100
AcDbLine
 10
73.99968197367582
 20
39.5
 30
0.0
 11
73.99968197367581
 21
104.5
 31
0.0
  0
LINE
  5
34B7
330
3491
100
AcDbEntity
  8
0
100
AcDbLine
 10
-74.50031802632421
 20
39.49999999999999
 30
0.0
 11
-74.5003180263242
 21
4.999999999999977
 31
0.0
  0
LINE
  5
34B8
330
3491
100
AcDbEntity
  8
0
100
AcDbLine
 10
-72.0003180263242
 20
4.99999999999998
 30
0.0
 11
-72.00031802632421
 21
39.49999999999999
 31
0.0
  0
LINE
  5
34B9
330
3491
100
AcDbEntity
  8
0
100
AcDbLine
 10
-24.00031802632418
 20
2.499999999999993
 30
0.0
 11
-69.5003180263242
 21
2.499999999999979
 31
0.0
  0
LINE
  5
34BA
330
3491
100
AcDbEntity
  8
0
100
AcDbLine
 10
-69.5003180263242
 20
0.0
 30
0.0
 11
-24.00031802632418
 21
0.0
 31
0.0
  0
LINE
  5
34BB
330
3491
100
AcDbEntity
  8
0
100
AcDbLine
 10
-24.00031802632418
 20
0.0
 30
0.0
 11
-24.00031802632418
 21
2.499999999999993
 31
0.0
  0
LINE
  5
34BC
330
3491
100
AcDbEntity
  8
0
100
AcDbLine
 10
-69.50031802632421
 20
9.173000000000007
 30
0.0
 11
-69.00031802632421
 21
9.173000000000016
 31
0.0
  0
LINE
  5
34BD
330
3491
100
AcDbEntity
  8
0
100
AcDbLine
 10
-69.00031802632421
 20
9.173000000000016
 30
0.0
 11
-69.00031802632421
 21
8.000000000000014
 31
0.0
  0
LINE
  5
34BE
330
3491
100
AcDbEntity
  8
0
100
AcDbLine
 10
-69.00031802632419
 20
5.499999999999979
 30
0.0
 11
-69.00031802632419
 21
2.999999999999979
 31
0.0
  0
CIRCLE
  5
34BF
330
3491
100
AcDbEntity
  8
0
100
AcDbCircle
 10
-44.0003180263242
 20
29.50000000000003
 30
0.0
 40
2.5
  0
CIRCLE
  5
34C0
330
3491
100
AcDbEntity
  8
0
100
AcDbCircle
 10
-14.0003180263242
 20
49.50000000000002
 30
0.0
 40
2.5
  0
CIRCLE
  5
34C1
330
3491
100
AcDbEntity
  8
0
100
AcDbCircle
 10
-14.0003180263242
 20
69.50000000000002
 30
0.0
 40
2.5
  0
CIRCLE
  5
34C2
330
3491
100
AcDbEntity
  8
0
100
AcDbCircle
 10
-14.0003180263242
 20
109.5
 30
0.0
 40
2.5
  0
CIRCLE
  5
34C3
330
3491
100
AcDbEntity
  8
0
100
AcDbCircle
 10
-29.00031802632419
 20
79.50000000000002
 30
0.0
 40
2.5
  0
CIRCLE
  5
34C4
330
3491
100
AcDbEntity
  8
0
100
AcDbCircle
 10
-29.00031802632421
 20
119.5
 30
0.0
 40
2.5
  0
CIRCLE
  5
34C5
330
3491
100
AcDbEntity
  8
0
100
AcDbCircle
 10
-44.0003180263242
 20
129.5
 30
0.0
 40
2.5
  0
CIRCLE
  5
34C6
330
3491
100
AcDbEntity
  8
0
100
AcDbCircle
 10
-59.00031802632421
 20
99.50000000000002
 30
0.0
 40
2.5
  0
CIRCLE
  5
34C7
330
3491
100
AcDbEntity
  8
0
100
AcDbCircle
 10
-59.00031802632421
 20
79.50000000000002
 30
0.0
 40
2.5
  0
CIRCLE
  5
34C8
330
3491
100
AcDbEntity
  8
0
100
AcDbCircle
 10
-59.00031802632421
 20
119.5
 30
0.0
 40
2.5
  0
CIRCLE
  5
34C9
330
3491
100
AcDbEntity
  8
0
100
AcDbCircle
 10
-44.0003180263242
 20
69.50000000000002
 30
0.0
 40
2.5
  0
CIRCLE
  5
34CA
330
3491
100
AcDbEntity
  8
0
100
AcDbCircle
 10
-29.0003180263242
 20
99.50000000000002
 30
0.0
 40
2.5
  0
CIRCLE
  5
34CB
330
3491
100
AcDbEntity
  8
0
100
AcDbCircle
 10
-14.0003180263242
 20
129.5
 30
0.0
 40
2.5
  0
CIRCLE
  5
34CC
330
3491
100
AcDbEntity
  8
0
100
AcDbCircle
 10
-14.0003180263242
 20
89.50000000000002
 30
0.0
 40
2.5
  0
CIRCLE
  5
34CD
330
3491
100
AcDbEntity
  8
0
100
AcDbCircle
 10
-44.0003180263242
 20
49.50000000000002
 30
0.0
 40
2.5
  0
CIRCLE
  5
34CE
330
3491
100
AcDbEntity
  8
0
100
AcDbCircle
 10
-14.0003180263242
 20
29.50000000000003
 30
0.0
 40
2.5
  0
ARC
  5
34CF
330
3491
100
AcDbEntity
  8
0
100
AcDbCircle
 10
-44.00031802632419
 20
91.00000000000003
 30
0.0
 40
6.499999999999999
100
AcDbArc
 50
180.0
 51
0.0
  0
LINE
  5
34D0
330
3491
100
AcDbEntity
  8
0
100
AcDbLine
 10
-50.50031802632419
 20
91.00000000000003
 30
0.0
 11
-50.50031802632421
 21
108.0
 31
0.0
  0
ARC
  5
34D1
330
3491
100
AcDbEntity
  8
0
100
AcDbCircle
 10
-44.0003180263242
 20
108.0
 30
0.0
 40
6.499999999999999
100
AcDbArc
 50
0.0
 51
180.0
  0
LINE
  5
34D2
330
3491
100
AcDbEntity
  8
0
100
AcDbLine
 10
-37.50031802632419
 20
108.0
 30
0.0
 11
-37.50031802632419
 21
91.00000000000003
 31
0.0
  0
ARC
  5
34D3
330
3491
100
AcDbEntity
  8
0
100
AcDbCircle
 10
0.9996819736757904
 20
21.00000000000014
 30
0.0
 40
6.500000000000003
100
AcDbArc
 50
180.0
 51
0.0
  0
LINE
  5
34D4
330
3491
100
AcDbEntity
  8
0
100
AcDbLine
 10
-5.500318026324194
 20
21.00000000000014
 30
0.0
 11
-5.500318026324194
 21
38.00000000000003
 31
0.0
  0
ARC
  5
34D5
330
3491
100
AcDbEntity
  8
0
100
AcDbCircle
 10
0.9996819736757904
 20
38.00000000000003
 30
0.0
 40
6.499999999999998
100
AcDbArc
 50
0.0
 51
180.0
  0
CIRCLE
  5
34D6
330
3491
100
AcDbEntity
  8
0
100
AcDbCircle
 10
0.9996819736757993
 20
79.50000000000002
 30
0.0
 40
4.5
  0
CIRCLE
  5
34D7
330
3491
100
AcDbEntity
  8
0
100
AcDbCircle
 10
0.9996819736757993
 20
99.50000000000002
 30
0.0
 40
2.5
  0
CIRCLE
  5
34D8
330
3491
100
AcDbEntity
  8
0
100
AcDbCircle
 10
0.9996819736757993
 20
119.5
 30
0.0
 40
4.5
  0
CIRCLE
  5
34D9
330
3491
100
AcDbEntity
  8
0
100
AcDbCircle
 10
45.99968197367579
 20
49.50000000000002
 30
0.0
 40
2.5
  0
CIRCLE
  5
34DA
330
3491
100
AcDbEntity
  8
0
100
AcDbCircle
 10
15.9996819736758
 20
89.50000000000002
 30
0.0
 40
2.5
  0
CIRCLE
  5
34DB
330
3491
100
AcDbEntity
  8
0
100
AcDbCircle
 10
15.9996819736758
 20
129.5
 30
0.0
 40
2.5
  0
CIRCLE
  5
34DC
330
3491
100
AcDbEntity
  8
0
100
AcDbCircle
 10
30.99968197367581
 20
99.50000000000002
 30
0.0
 40
2.5
  0
CIRCLE
  5
34DD
330
3491
100
AcDbEntity
  8
0
100
AcDbCircle
 10
45.99968197367579
 20
69.50000000000002
 30
0.0
 40
2.5
  0
CIRCLE
  5
34DE
330
3491
100
AcDbEntity
  8
0
100
AcDbCircle
 10
60.9996819736758
 20
119.5
 30
0.0
 40
2.5
  0
CIRCLE
  5
34DF
330
3491
100
AcDbEntity
  8
0
100
AcDbCircle
 10
60.9996819736758
 20
79.50000000000002
 30
0.0
 40
2.5
  0
CIRCLE
  5
34E0
330
3491
100
AcDbEntity
  8
0
100
AcDbCircle
 10
60.9996819736758
 20
99.50000000000002
 30
0.0
 40
2.5
  0
CIRCLE
  5
34E1
330
3491
100
AcDbEntity
  8
0
100
AcDbCircle
 10
45.99968197367579
 20
129.5
 30
0.0
 40
2.5
  0
CIRCLE
  5
34E2
330
3491
100
AcDbEntity
  8
0
100
AcDbCircle
 10
30.99968197367581
 20
119.5
 30
0.0
 40
2.5
  0
CIRCLE
  5
34E3
330
3491
100
AcDbEntity
  8
0
100
AcDbCircle
 10
30.99968197367579
 20
79.50000000000002
 30
0.0
 40
2.5
  0
CIRCLE
  5
34E4
330
3491
100
AcDbEntity
  8
0
100
AcDbCircle
 10
15.9996819736758
 20
109.5
 30
0.0
 40
2.5
  0
CIRCLE
  5
34E5
330
3491
100
AcDbEntity
  8
0
100
AcDbCircle
 10
15.9996819736758
 20
69.50000000000002
 30
0.0
 40
2.5
  0
CIRCLE
  5
34E6
330
3491
100
AcDbEntity
  8
0
100
AcDbCircle
 10
15.9996819736758
 20
49.50000000000002
 30
0.0
 40
2.5
  0
CIRCLE
  5
34E7
330
3491
100
AcDbEntity
  8
0
100
AcDbCircle
 10
45.99968197367579
 20
29.50000000000003
 30
0.0
 40
2.5
  0
CIRCLE
  5
34E8
330
3491
100
AcDbEntity
  8
0
100
AcDbCircle
 10
15.9996819736758
 20
29.50000000000003
 30
0.0
 40
2.5
  0
ARC
  5
34E9
330
3491
100
AcDbEntity
  8
0
100
AcDbCircle
 10
45.99968197367579
 20
91.00000000000003
 30
0.0
 40
6.499999999999999
100
AcDbArc
 50
180.0
 51
0.0
  0
LINE
  5
34EA
330
3491
100
AcDbEntity
  8
0
100
AcDbLine
 10
39.49968197367579
 20
91.00000000000003
 30
0.0
 11
39.4996819736758
 21
108.0
 31
0.0
  0
ARC
  5
34EB
330
3491
100
AcDbEntity
  8
0
100
AcDbCircle
 10
45.99968197367579
 20
108.0
 30
0.0
 40
6.499999999999999
100
AcDbArc
 50
0.0
 51
180.0
  0
LINE
  5
34EC
330
3491
100
AcDbEntity
  8
0
100
AcDbLine
 10
52.4996819736758
 20
108.0
 30
0.0
 11
52.49968197367579
 21
91.00000000000003
 31
0.0
  0
LINE
  5
34ED
330
3491
100
AcDbEntity
  8
0
100
AcDbLine
 10
7.499681973675794
 20
38.00000000000003
 30
0.0
 11
7.499681973675794
 21
21.00000000000014
 31
0.0
  0
ARC
  5
34EE
330
3491
100
AcDbEntity
  8
0
100
AcDbCircle
 10
73.99968197367582
 20
20.66002921924855
 30
0.0
 40
2.500000000000071
100
AcDbArc
 50
180.0
 51
235.389349017266
  0
LINE
  5
34EF
330
3491
100
AcDbEntity
  8
0
100
AcDbLine
 10
72.5796900938176
 20
18.60245223134831
 30
0.0
 11
73.78368034964745
 21
17.77154461682863
 31
0.0
  0
ARC
  5
34F0
330
3491
100
AcDbEntity
  8
0
100
AcDbCircle
 10
73.49968197367582
 20
17.36002921924859
 30
0.0
 40
0.5000000000000001
100
AcDbArc
 50
0.0
 51
55.38934901726611
  0
ARC
  5
34F1
330
3491
100
AcDbEntity
  8
0
100
AcDbCircle
 10
73.99968197367583
 20
97.54455616239489
 30
0.0
 40
2.500000000000079
100
AcDbArc
 50
124.6106509827356
 51
180.0
  0
LINE
  5
34F2
330
3491
100
AcDbEntity
  8
0
100
AcDbLine
 10
72.57969009381762
 20
99.60213315029504
 30
0.0
 11
73.78368034964747
 21
100.4330407648147
 31
0.0
  0
ARC
  5
34F3
330
3491
100
AcDbEntity
  8
0
100
AcDbCircle
 10
73.49968197367584
 20
100.8445561623947
 30
0.0
 40
0.5000000000000001
100
AcDbArc
 50
304.6106509827323
 51
0.0
  0
LINE
  5
34F4
330
3491
100
AcDbEntity
  8
0
100
AcDbLine
 10
71.49968197367582
 20
97.54455616239491
 30
0.0
 11
71.49968197367582
 21
20.66002921924857
 31
0.0
  0
ARC
  5
34F5
330
3491
100
AcDbEntity
  8
0
100
AcDbCircle
 10
-72.00031802632421
 20
20.66002921924855
 30
0.0
 40
2.500000000000071
100
AcDbArc
 50
304.6106509827342
 51
0.0
  0
LINE
  5
34F6
330
3491
100
AcDbEntity
  8
0
100
AcDbLine
 10
-70.58032614646599
 20
18.60245223134831
 30
0.0
 11
-71.78431640229584
 21
17.77154461682863
 31
0.0
  0
ARC
  5
34F7
330
3491
100
AcDbEntity
  8
0
100
AcDbCircle
 10
-71.50031802632421
 20
17.36002921924859
 30
0.0
 40
0.5
100
AcDbArc
 50
124.6106509827339
 51
180.0
  0
ARC
  5
34F8
330
3491
100
AcDbEntity
  8
0
100
AcDbCircle
 10
-72.00031802632422
 20
97.54455616239489
 30
0.0
 40
2.500000000000079
100
AcDbArc
 50
0.0
 51
55.38934901726424
  0
LINE
  5
34F9
330
3491
100
AcDbEntity
  8
0
100
AcDbLine
 10
-70.58032614646601
 20
99.60213315029504
 30
0.0
 11
-71.78431640229586
 21
100.4330407648147
 31
0.0
  0
ARC
  5
34FA
330
3491
100
AcDbEntity
  8
0
100
AcDbCircle
 10
-71.50031802632422
 20
100.8445561623947
 30
0.0
 40
0.5000000000000002
100
AcDbArc
 50
180.0
 51
235.3893490172677
  0
LINE
  5
34FB
330
3491
100
AcDbEntity
  8
0
100
AcDbLine
 10
-69.50031802632421
 20
20.66002921924869
 30
0.0
 11
-69.50031802632422
 21
97.54455616239484
 31
0.0
  0
ENDBLK
  5
3493
330
3491
100
AcDbEntity
  8
0
100
AcDbBlockEnd
  0
BLOCK
  5
34FD
330
34FC
100
AcDbEntity
  8
0
100
AcDbBlockBegin
  2
ACW155-Left
 70
     0
 10
0.0
 20
0.0
 30
0.0
  3
ACW155-Left
  1

  0
LINE
  5
34FF
330
34FC
100
AcDbEntity
  8
0
100
AcDbLine
 10
-6.395633003862469
 20
9.173000000000016
 30
0.0
 11
-11.39563300386247
 21
9.173000000000017
 31
0.0
  0
LINE
  5
3500
330
34FC
100
AcDbEntity
  8
0
100
AcDbLine
 10
-11.39563300386241
 20
154.5
 30
0.0
 11
-6.395633003862405
 21
154.5
 31
0.0
  0
LINE
  5
3501
330
34FC
100
AcDbEntity
  8
0
100
AcDbLine
 10
-11.39563300386241
 20
154.5
 30
0.0
 11
-11.39563300386247
 21
9.173000000000008
 31
0.0
  0
ARC
  5
3502
330
34FC
100
AcDbEntity
  8
0
100
AcDbCircle
 10
-6.395633003862471
 20
8.000000000000019
 30
0.0
 40
5.0
100
AcDbArc
 50
180.0
 51
270.0
  0
LINE
  5
3503
330
34FC
100
AcDbEntity
  8
0
100
AcDbLine
 10
108.1043669961375
 20
4.999999999999976
 30
0.0
 11
108.1043669961375
 21
0.0
 31
0.0
  0
LINE
  5
3504
330
34FC
100
AcDbEntity
  8
0
100
AcDbLine
 10
-5.895633003862473
 20
0.0
 30
0.0
 11
-5.89563300386247
 21
5.000000000000015
 31
0.0
  0
LINE
  5
3505
330
34FC
100
AcDbEntity
  8
0
100
AcDbLine
 10
-5.89563300386246
 20
0.0
 30
0.0
 11
108.1043669961375
 21
0.0
 31
0.0
  0
ARC
  5
3506
330
34FC
100
AcDbEntity
  8
0
100
AcDbCircle
 10
-6.395633003862473
 20
8.000000000000014
 30
0.0
 40
2.499999999999999
100
AcDbArc
 50
180.0
 51
270.0
  0
LINE
  5
3507
330
34FC
100
AcDbEntity
  8
0
100
AcDbLine
 10
-6.395633003862406
 20
154.5
 30
0.0
 11
18.10436699613754
 21
154.5
 31
0.0
  0
LINE
  5
3508
330
34FC
100
AcDbEntity
  8
0
100
AcDbLine
 10
108.1043669961375
 20
39.49999999999999
 30
0.0
 11
108.1043669961375
 21
4.999999999999977
 31
0.0
  0
LINE
  5
3509
330
34FC
100
AcDbEntity
  8
0
100
AcDbLine
 10
-6.395633003862471
 20
9.173000000000007
 30
0.0
 11
-5.895633003862469
 21
9.173000000000016
 31
0.0
  0
LINE
  5
350A
330
34FC
100
AcDbEntity
  8
0
100
AcDbLine
 10
-5.895633003862469
 20
9.173000000000016
 30
0.0
 11
-5.895633003862471
 21
5.000000000000015
 31
0.0
  0
LINE
  5
350B
330
34FC
100
AcDbEntity
  8
0
100
AcDbLine
 10
-11.39563300386247
 20
8.000000000000021
 30
0.0
 11
-11.39563300386247
 21
9.173000000000017
 31
0.0
  0
LINE
  5
350C
330
34FC
100
AcDbEntity
  8
0
100
AcDbLine
 10
-8.895633003862473
 20
9.173000000000016
 30
0.0
 11
-8.895633003862471
 21
8.000000000000014
 31
0.0
  0
LINE
  5
350D
330
34FC
100
AcDbEntity
  8
0
100
AcDbLine
 10
-5.895633003862484
 20
3.000000000000018
 30
0.0
 11
-6.395633003862472
 21
3.000000000000018
 31
0.0
  0
LINE
  5
350E
330
34FC
100
AcDbEntity
  8
0
100
AcDbLine
 10
-6.395633003862473
 20
5.500000000000016
 30
0.0
 11
-5.895633003862471
 21
5.500000000000015
 31
0.0
  0
LINE
  5
350F
330
34FC
100
AcDbEntity
  8
0
100
AcDbLine
 10
108.1043669961375
 20
39.49999999999999
 30
0.0
 11
68.10436699613754
 21
39.5
 31
0.0
  0
LINE
  5
3510
330
34FC
100
AcDbEntity
  8
0
100
AcDbLine
 10
68.10436699613754
 20
39.5
 30
0.0
 11
18.10436699613752
 21
104.5
 31
0.0
  0
LINE
  5
3511
330
34FC
100
AcDbEntity
  8
0
100
AcDbLine
 10
18.10436699613752
 20
104.5
 30
0.0
 11
18.10436699613754
 21
154.5
 31
0.0
  0
ENDBLK
  5
34FE
330
34FC
100
AcDbEntity
  8
0
100
AcDbBlockEnd
  0
BLOCK
  5
3513
330
3512
100
AcDbEntity
  8
0
100
AcDbBlockBegin
  2
ACW155-Right
 70
     0
 10
0.0
 20
0.0
 30
0.0
  3
ACW155-Right
  1

  0
LINE
  5
3515
330
3512
100
AcDbEntity
  8
0
100
AcDbLine
 10
6.395633003862424
 20
154.5
 30
0.0
 11
-18.10436699613752
 21
154.5
 31
0.0
  0
LINE
  5
3516
330
3512
100
AcDbEntity
  8
0
100
AcDbLine
 10
5.895633003862487
 20
9.173000000000016
 30
0.0
 11
6.395633003862489
 21
9.173000000000007
 31
0.0
  0
LINE
  5
3517
330
3512
100
AcDbEntity
  8
0
100
AcDbLine
 10
-18.10436699613752
 20
154.5
 30
0.0
 11
-18.1043669961375
 21
104.5
 31
0.0
  0
LINE
  5
3518
330
3512
100
AcDbEntity
  8
0
100
AcDbLine
 10
-18.1043669961375
 20
104.5
 30
0.0
 11
-68.10436699613752
 21
39.5
 31
0.0
  0
LINE
  5
3519
330
3512
100
AcDbEntity
  8
0
100
AcDbLine
 10
-68.10436699613752
 20
39.5
 30
0.0
 11
-108.1043669961375
 21
39.49999999999999
 31
0.0
  0
LINE
  5
351A
330
3512
100
AcDbEntity
  8
0
100
AcDbLine
 10
-108.1043669961375
 20
39.49999999999999
 30
0.0
 11
-108.1043669961375
 21
4.999999999999977
 31
0.0
  0
LINE
  5
351B
330
3512
100
AcDbEntity
  8
0
100
AcDbLine
 10
5.895633003862489
 20
5.000000000000015
 30
0.0
 11
5.895633003862487
 21
9.173000000000016
 31
0.0
  0
LINE
  5
351C
330
3512
100
AcDbEntity
  8
0
100
AcDbLine
 10
11.39563300386248
 20
9.173000000000017
 30
0.0
 11
11.39563300386249
 21
8.000000000000021
 31
0.0
  0
LINE
  5
351D
330
3512
100
AcDbEntity
  8
0
100
AcDbLine
 10
8.895633003862489
 20
8.000000000000014
 30
0.0
 11
8.895633003862489
 21
9.173000000000016
 31
0.0
  0
LINE
  5
351E
330
3512
100
AcDbEntity
  8
0
100
AcDbLine
 10
5.895633003862479
 20
5.500000000000015
 30
0.0
 11
6.39563300386249
 21
5.500000000000016
 31
0.0
  0
LINE
  5
351F
330
3512
100
AcDbEntity
  8
0
100
AcDbLine
 10
6.395633003862489
 20
3.000000000000018
 30
0.0
 11
5.895633003862489
 21
3.000000000000018
 31
0.0
  0
LINE
  5
3520
330
3512
100
AcDbEntity
  8
0
100
AcDbLine
 10
6.395633003862426
 20
154.5
 30
0.0
 11
11.39563300386242
 21
154.5
 31
0.0
  0
LINE
  5
3521
330
3512
100
AcDbEntity
  8
0
100
AcDbLine
 10
11.39563300386249
 20
9.173000000000017
 30
0.0
 11
6.39563300386249
 21
9.173000000000016
 31
0.0
  0
LINE
  5
3522
330
3512
100
AcDbEntity
  8
0
100
AcDbLine
 10
11.39563300386249
 20
9.173000000000017
 30
0.0
 11
11.39563300386242
 21
154.5
 31
0.0
  0
ARC
  5
3523
330
3512
100
AcDbEntity
  8
0
100
AcDbCircle
 10
6.395633003862487
 20
8.000000000000019
 30
0.0
 40
5.0
100
AcDbArc
 50
270.0
 51
0.0
  0
ARC
  5
3524
330
3512
100
AcDbEntity
  8
0
100
AcDbCircle
 10
6.39563300386249
 20
8.000000000000014
 30
0.0
 40
2.499999999999999
100
AcDbArc
 50
270.0
 51
0.0
  0
LINE
  5
3525
330
3512
100
AcDbEntity
  8
0
100
AcDbLine
 10
-108.1043669961375
 20
0.0
 30
0.0
 11
-108.1043669961375
 21
4.999999999999977
 31
0.0
  0
LINE
  5
3526
330
3512
100
AcDbEntity
  8
0
100
AcDbLine
 10
-108.1043669961375
 20
0.0
 30
0.0
 11
5.895633003862492
 21
0.0
 31
0.0
  0
LINE
  5
3527
330
3512
100
AcDbEntity
  8
0
100
AcDbLine
 10
5.89563300386249
 20
5.000000000000017
 30
0.0
 11
5.89563300386249
 21
0.0
 31
0.0
  0
ENDBLK
  5
3514
330
3512
100
AcDbEntity
  8
0
100
AcDbBlockEnd
  0
BLOCK
  5
3529
330
3528
100
AcDbEntity
  8
0
100
AcDbBlockBegin
  2
ACW155-Top
 70
     0
 10
0.0
 20
0.0
 30
0.0
  3
ACW155-Top
  1

  0
ARC
  5
352B
330
3528
100
AcDbEntity
  8
0
100
AcDbCircle
 10
50.49968197367582
 20
-16.1043669961375
 30
0.0
 40
7.250000000000006
100
AcDbArc
 50
350.7038915338267
 51
136.1660061120182
  0
ARC
  5
352C
330
3528
100
AcDbEntity
  8
0
100
AcDbCircle
 10
-48.50031802632422
 20
-59.60436699613741
 30
0.0
 40
6.499999999999999
100
AcDbArc
 50
180.0
 51
267.795772496043
  0
LINE
  5
352D
330
3528
100
AcDbEntity
  8
0
100
AcDbLine
 10
-55.00031802632419
 20
-59.60436699613751
 30
0.0
 11
-55.00031802632421
 21
-42.6043669961375
 31
0.0
  0
ARC
  5
352E
330
3528
100
AcDbEntity
  8
0
100
AcDbCircle
 10
-48.50031802632422
 20
-42.60436699613751
 30
0.0
 40
6.499999999999999
100
AcDbArc
 50
92.20422750397629
 51
180.0
  0
ARC
  5
352F
330
3528
100
AcDbEntity
  8
0
100
AcDbCircle
 10
-48.50031802632421
 20
-88.10436699613751
 30
0.0
 40
7.25
100
AcDbArc
 50
43.83399388798151
 51
189.2961084661736
  0
ARC
  5
3530
330
3528
100
AcDbEntity
  8
0
100
AcDbCircle
 10
-48.50031802632422
 20
-16.1043669961375
 30
0.0
 40
7.250000000000006
100
AcDbArc
 50
43.83399388798233
 51
189.2961084661737
  0
ARC
  5
3531
330
3528
100
AcDbEntity
  8
0
100
AcDbCircle
 10
50.49968197367579
 20
-88.10436699613751
 30
0.0
 40
7.25
100
AcDbArc
 50
350.7038915338248
 51
136.1660061120171
  0
ARC
  5
3532
330
3528
100
AcDbEntity
  8
0
100
AcDbCircle
 10
50.4996819736758
 20
-42.60436699613751
 30
0.0
 40
6.499999999999998
100
AcDbArc
 50
0.0
 51
87.79577249602565
  0
LINE
  5
3533
330
3528
100
AcDbEntity
  8
0
100
AcDbLine
 10
56.99968197367581
 20
-42.60436699613751
 30
0.0
 11
56.99968197367581
 21
-59.60436699613751
 31
0.0
  0
ARC
  5
3534
330
3528
100
AcDbEntity
  8
0
100
AcDbCircle
 10
50.49968197367579
 20
-59.60436699613751
 30
0.0
 40
6.499999999999999
100
AcDbArc
 50
272.2042275039704
 51
0.0
  0
ARC
  5
3535
330
3528
100
AcDbEntity
  8
0
100
AcDbCircle
 10
-69.50031802632422
 20
6.395633003862409
 30
0.0
 40
5.0
100
AcDbArc
 50
90.0
 51
180.0
  0
ARC
  5
3536
330
3528
100
AcDbEntity
  8
0
100
AcDbCircle
 10
-69.50031802632421
 20
6.395633003862472
 30
0.0
 40
2.499999999999999
100
AcDbArc
 50
90.0
 51
180.0
  0
ARC
  5
3537
330
3528
100
AcDbEntity
  8
0
100
AcDbCircle
 10
71.49968197367581
 20
6.395633003862487
 30
0.0
 40
2.499999999999999
100
AcDbArc
 50
0.0
 51
90.0
  0
ARC
  5
3538
330
3528
100
AcDbEntity
  8
0
100
AcDbCircle
 10
71.49968197367582
 20
6.395633003862424
 30
0.0
 40
5.0
100
AcDbArc
 50
0.0
 51
90.0
  0
LINE
  5
3539
330
3528
100
AcDbEntity
  8
0
100
AcDbLine
 10
70.99968197367579
 20
6.39563300386249
 30
0.0
 11
70.99968197367579
 21
8.895633003862489
 31
0.0
  0
LINE
  5
353A
330
3528
100
AcDbEntity
  8
0
100
AcDbLine
 10
-69.50031802632421
 20
5.895633003862474
 30
0.0
 11
-72.00031802632421
 21
5.895633003862473
 31
0.0
  0
LINE
  5
353B
330
3528
100
AcDbEntity
  8
0
100
AcDbLine
 10
71.49968197367581
 20
-108.1043669961375
 30
0.0
 11
73.99968197367581
 21
-108.1043669961375
 31
0.0
  0
LINE
  5
353C
330
3528
100
AcDbEntity
  8
0
100
AcDbLine
 10
73.99968197367579
 20
5.895633003862489
 30
0.0
 11
71.49968197367579
 21
5.895633003862489
 31
0.0
  0
LINE
  5
353D
330
3528
100
AcDbEntity
  8
0
100
AcDbLine
 10
-72.0003180263242
 20
-108.1043669961375
 30
0.0
 11
-69.5003180263242
 21
-108.1043669961375
 31
0.0
  0
LINE
  5
353E
330
3528
100
AcDbEntity
  8
0
100
AcDbLine
 10
-69.00031802632421
 20
8.895633003862473
 30
0.0
 11
-69.00031802632421
 21
6.395633003862474
 31
0.0
  0
LINE
  5
353F
330
3528
100
AcDbEntity
  8
0
100
AcDbLine
 10
-74.50031802632422
 20
6.395633003862407
 30
0.0
 11
-74.50031802632422
 21
-18.10436699613753
 31
0.0
  0
LINE
  5
3540
330
3528
100
AcDbEntity
  8
0
100
AcDbLine
 10
-72.00031802632421
 20
6.395633003862471
 30
0.0
 11
-72.00031802632422
 21
-18.10436699613753
 31
0.0
  0
LINE
  5
3541
330
3528
100
AcDbEntity
  8
0
100
AcDbLine
 10
-69.00031802632419
 20
-108.1043669961375
 30
0.0
 11
-69.5003180263242
 21
-108.1043669961375
 31
0.0
  0
LINE
  5
3542
330
3528
100
AcDbEntity
  8
0
100
AcDbLine
 10
-74.50031802632422
 20
-18.10436699613753
 30
0.0
 11
-72.00031802632422
 21
-18.10436699613753
 31
0.0
  0
LINE
  5
3543
330
3528
100
AcDbEntity
  8
0
100
AcDbLine
 10
-74.50031802632421
 20
-108.1043669961375
 30
0.0
 11
-74.50031802632421
 21
-68.10436699613754
 31
0.0
  0
LINE
  5
3544
330
3528
100
AcDbEntity
  8
0
100
AcDbLine
 10
-74.50031802632421
 20
-68.10436699613754
 30
0.0
 11
-74.50031802632421
 21
-18.10436699613752
 31
0.0
  0
LINE
  5
3545
330
3528
100
AcDbEntity
  8
0
100
AcDbLine
 10
-72.00031802632421
 20
-18.10436699613751
 30
0.0
 11
-72.00031802632421
 21
-68.10436699613754
 31
0.0
  0
LINE
  5
3546
330
3528
100
AcDbEntity
  8
0
100
AcDbLine
 10
-72.00031802632421
 20
-68.10436699613754
 30
0.0
 11
-72.00031802632421
 21
-108.1043669961375
 31
0.0
  0
LINE
  5
3547
330
3528
100
AcDbEntity
  8
0
100
AcDbLine
 10
-72.00031802632421
 20
-108.1043669961375
 30
0.0
 11
-74.50031802632421
 21
-108.1043669961375
 31
0.0
  0
LINE
  5
3548
330
3528
100
AcDbEntity
  8
0
100
AcDbLine
 10
-74.50031802632421
 20
-68.10436699613754
 30
0.0
 11
-72.00031802632421
 21
-68.10436699613754
 31
0.0
  0
LINE
  5
3549
330
3528
100
AcDbEntity
  8
0
100
AcDbLine
 10
71.49968197367581
 20
8.895633003862487
 30
0.0
 11
-69.50031802632421
 21
8.895633003862471
 31
0.0
  0
LINE
  5
354A
330
3528
100
AcDbEntity
  8
0
100
AcDbLine
 10
-69.50031802632422
 20
11.39563300386241
 30
0.0
 11
71.49968197367582
 21
11.39563300386242
 31
0.0
  0
LINE
  5
354B
330
3528
100
AcDbEntity
  8
0
100
AcDbLine
 10
70.9996819736758
 20
-108.1043669961375
 30
0.0
 11
-69.00031802632419
 21
-108.1043669961375
 31
0.0
  0
LINE
  5
354C
330
3528
100
AcDbEntity
  8
0
100
AcDbLine
 10
73.99968197367581
 20
6.395633003862489
 30
0.0
 11
73.99968197367582
 21
-18.10436699613752
 31
0.0
  0
LINE
  5
354D
330
3528
100
AcDbEntity
  8
0
100
AcDbLine
 10
73.99968197367582
 20
-18.10436699613752
 30
0.0
 11
76.49968197367582
 21
-18.10436699613752
 31
0.0
  0
LINE
  5
354E
330
3528
100
AcDbEntity
  8
0
100
AcDbLine
 10
76.49968197367582
 20
6.395633003862425
 30
0.0
 11
76.49968197367582
 21
-18.10436699613752
 31
0.0
  0
LINE
  5
354F
330
3528
100
AcDbEntity
  8
0
100
AcDbLine
 10
76.49968197367581
 20
-18.1043669961375
 30
0.0
 11
76.49968197367582
 21
-68.10436699613752
 31
0.0
  0
LINE
  5
3550
330
3528
100
AcDbEntity
  8
0
100
AcDbLine
 10
76.49968197367582
 20
-68.10436699613752
 30
0.0
 11
76.49968197367582
 21
-108.1043669961375
 31
0.0
  0
LINE
  5
3551
330
3528
100
AcDbEntity
  8
0
100
AcDbLine
 10
70.9996819736758
 20
-108.1043669961375
 30
0.0
 11
70.99968197367579
 21
6.395633003862482
 31
0.0
  0
LINE
  5
3552
330
3528
100
AcDbEntity
  8
0
100
AcDbLine
 10
76.49968197367582
 20
-108.1043669961375
 30
0.0
 11
73.99968197367582
 21
-108.1043669961375
 31
0.0
  0
LINE
  5
3553
330
3528
100
AcDbEntity
  8
0
100
AcDbLine
 10
70.9996819736758
 20
-108.1043669961375
 30
0.0
 11
71.49968197367581
 21
-108.1043669961375
 31
0.0
  0
LINE
  5
3554
330
3528
100
AcDbEntity
  8
0
100
AcDbLine
 10
71.49968197367579
 20
5.895633003862488
 30
0.0
 11
70.99968197367579
 21
5.895633003862488
 31
0.0
  0
CIRCLE
  5
3555
330
3528
100
AcDbEntity
  8
0
100
AcDbCircle
 10
50.9996819736758
 20
-15.10436699613752
 30
0.0
 40
7.0
  0
CIRCLE
  5
3556
330
3528
100
AcDbEntity
  8
0
100
AcDbCircle
 10
50.99968197367581
 20
-87.10436699613753
 30
0.0
 40
7.0
  0
LINE
  5
3557
330
3528
100
AcDbEntity
  8
0
100
AcDbLine
 10
73.99968197367582
 20
-68.10436699613752
 30
0.0
 11
73.99968197367581
 21
-18.10436699613751
 31
0.0
  0
LINE
  5
3558
330
3528
100
AcDbEntity
  8
0
100
AcDbLine
 10
76.49968197367582
 20
-68.10436699613752
 30
0.0
 11
73.99968197367582
 21
-68.10436699613752
 31
0.0
  0
LINE
  5
3559
330
3528
100
AcDbEntity
  8
0
100
AcDbLine
 10
73.99968197367582
 20
-108.1043669961375
 30
0.0
 11
73.99968197367582
 21
-68.10436699613752
 31
0.0
  0
ARC
  5
355A
330
3528
100
AcDbEntity
  8
0
100
AcDbCircle
 10
50.9996819736758
 20
-59.60436699613751
 30
0.0
 40
6.500000000000013
100
AcDbArc
 50
180.0
 51
0.0
  0
LINE
  5
355B
330
3528
100
AcDbEntity
  8
0
100
AcDbLine
 10
44.49968197367581
 20
-59.60436699613751
 30
0.0
 11
44.49968197367581
 21
-42.60436699613752
 31
0.0
  0
ARC
  5
355C
330
3528
100
AcDbEntity
  8
0
100
AcDbCircle
 10
50.9996819736758
 20
-42.60436699613752
 30
0.0
 40
6.499999999999987
100
AcDbArc
 50
0.0
 51
180.0
  0
LINE
  5
355D
330
3528
100
AcDbEntity
  8
0
100
AcDbLine
 10
57.49968197367579
 20
-42.60436699613752
 30
0.0
 11
57.49968197367579
 21
-59.60436699613751
 31
0.0
  0
LINE
  5
355E
330
3528
100
AcDbEntity
  8
0
100
AcDbLine
 10
-69.00031802632421
 20
5.89563300386246
 30
0.0
 11
-69.50031802632421
 21
5.89563300386246
 31
0.0
  0
LINE
  5
355F
330
3528
100
AcDbEntity
  8
0
100
AcDbLine
 10
-69.00031802632421
 20
6.395633003862473
 30
0.0
 11
-69.00031802632419
 21
-108.1043669961375
 31
0.0
  0
ARC
  5
3560
330
3528
100
AcDbEntity
  8
0
100
AcDbCircle
 10
-49.00031802632419
 20
-59.60436699613753
 30
0.0
 40
6.500000000000013
100
AcDbArc
 50
180.0
 51
0.0
  0
LINE
  5
3561
330
3528
100
AcDbEntity
  8
0
100
AcDbLine
 10
-42.5003180263242
 20
-42.60436699613754
 30
0.0
 11
-42.5003180263242
 21
-59.60436699613753
 31
0.0
  0
ARC
  5
3562
330
3528
100
AcDbEntity
  8
0
100
AcDbCircle
 10
-49.00031802632419
 20
-42.60436699613754
 30
0.0
 40
6.499999999999987
100
AcDbArc
 50
0.0
 51
180.0
  0
LINE
  5
3563
330
3528
100
AcDbEntity
  8
0
100
AcDbLine
 10
-55.50031802632418
 20
-59.60436699613753
 30
0.0
 11
-55.50031802632418
 21
-42.60436699613754
 31
0.0
  0
CIRCLE
  5
3564
330
3528
100
AcDbEntity
  8
0
100
AcDbCircle
 10
-49.0003180263242
 20
-15.10436699613754
 30
0.0
 40
7.0
  0
CIRCLE
  5
3565
330
3528
100
AcDbEntity
  8
0
100
AcDbCircle
 10
-49.00031802632419
 20
-87.10436699613753
 30
0.0
 40
7.0
  0
ARC
  5
3566
330
3528
100
AcDbEntity
  8
0
100
AcDbCircle
 10
73.99968197367582
 20
-64.55531079855768
 30
0.0
 40
2.500000000000072
100
AcDbArc
 50
180.0
 51
235.3893490172658
  0
LINE
  5
3567
330
3528
100
AcDbEntity
  8
0
100
AcDbLine
 10
72.5796900938176
 20
-66.61288778645792
 30
0.0
 11
73.78368034964745
 21
-67.44379540097759
 31
0.0
  0
ARC
  5
3568
330
3528
100
AcDbEntity
  8
0
100
AcDbCircle
 10
73.49968197367582
 20
-67.85531079855764
 30
0.0
 40
0.5
100
AcDbArc
 50
0.0
 51
55.38934901726569
  0
ARC
  5
3569
330
3528
100
AcDbEntity
  8
0
100
AcDbCircle
 10
73.99968197367583
 20
-5.413366996137605
 30
0.0
 40
2.500000000000079
100
AcDbArc
 50
124.6106509827341
 51
180.0
  0
LINE
  5
356A
330
3528
100
AcDbEntity
  8
0
100
AcDbLine
 10
72.57969009381762
 20
-3.355790008237369
 30
0.0
 11
73.78368034964748
 21
-2.524882393717688
 31
0.0
  0
ARC
  5
356B
330
3528
100
AcDbEntity
  8
0
100
AcDbCircle
 10
73.49968197367584
 20
-2.113366996137646
 30
0.0
 40
0.5000000000000001
100
AcDbArc
 50
304.6106509827339
 51
0.0
  0
LINE
  5
356C
330
3528
100
AcDbEntity
  8
0
100
AcDbLine
 10
71.49968197367582
 20
-5.413366996137581
 30
0.0
 11
71.49968197367582
 21
-64.5553107985579
 31
0.0
  0
ARC
  5
356D
330
3528
100
AcDbEntity
  8
0
100
AcDbCircle
 10
-72.00031802632421
 20
-64.55531079855771
 30
0.0
 40
2.500000000000071
100
AcDbArc
 50
304.6106509827345
 51
0.0
  0
LINE
  5
356E
330
3528
100
AcDbEntity
  8
0
100
AcDbLine
 10
-70.58032614646599
 20
-66.61288778645794
 30
0.0
 11
-71.78431640229584
 21
-67.44379540097762
 31
0.0
  0
ARC
  5
356F
330
3528
100
AcDbEntity
  8
0
100
AcDbCircle
 10
-71.50031802632421
 20
-67.85531079855767
 30
0.0
 40
0.5
100
AcDbArc
 50
124.6106509827337
 51
180.0
  0
ARC
  5
3570
330
3528
100
AcDbEntity
  8
0
100
AcDbCircle
 10
-72.00031802632422
 20
-5.413366996137622
 30
0.0
 40
2.500000000000079
100
AcDbArc
 50
0.0
 51
55.38934901726593
  0
LINE
  5
3571
330
3528
100
AcDbEntity
  8
0
100
AcDbLine
 10
-70.58032614646601
 20
-3.355790008237387
 30
0.0
 11
-71.78431640229587
 21
-2.524882393717706
 31
0.0
  0
ARC
  5
3572
330
3528
100
AcDbEntity
  8
0
100
AcDbCircle
 10
-71.50031802632422
 20
-2.113366996137664
 30
0.0
 40
0.5000000000000002
100
AcDbArc
 50
180.0
 51
235.3893490172661
  0
LINE
  5
3573
330
3528
100
AcDbEntity
  8
0
100
AcDbLine
 10
-69.50031802632421
 20
-64.55531079855783
 30
0.0
 11
-69.50031802632422
 21
-5.413366996137654
 31
0.0
  0
ARC
  5
3574
330
3528
100
AcDbEntity
  8
0
100
AcDbCircle
 10
60.9996819736758
 20
8.895633003862444
 30
0.0
 40
2.500000000000024
100
AcDbArc
 50
270.0000000000002
 51
325.389349017267
  0
LINE
  5
3575
330
3528
100
AcDbEntity
  8
0
100
AcDbLine
 10
63.0572589615761
 20
7.475641124004262
 30
0.0
 11
63.88816657609573
 21
8.679631379834123
 31
0.0
  0
ARC
  5
3576
330
3528
100
AcDbEntity
  8
0
100
AcDbCircle
 10
64.29968197367577
 20
8.39563300386249
 30
0.0
 40
0.5000000000000002
100
AcDbArc
 50
89.99999999999797
 51
145.3893490172666
  0
ARC
  5
3577
330
3528
100
AcDbEntity
  8
0
100
AcDbCircle
 10
-59.00031802632421
 20
8.89563300386243
 30
0.0
 40
2.500000000000017
100
AcDbArc
 50
214.6106509827329
 51
270.0
  0
LINE
  5
3578
330
3528
100
AcDbEntity
  8
0
100
AcDbLine
 10
-61.05789501422451
 20
7.475641124004244
 30
0.0
 11
-61.88880262874414
 21
8.679631379834106
 31
0.0
  0
ARC
  5
3579
330
3528
100
AcDbEntity
  8
0
100
AcDbCircle
 10
-62.30031802632419
 20
8.395633003862476
 30
0.0
 40
0.5000000000000001
100
AcDbArc
 50
34.61065098273311
 51
90.00000000000305
  0
LINE
  5
357A
330
3528
100
AcDbEntity
  8
0
100
AcDbLine
 10
60.9996819736758
 20
6.395633003862442
 30
0.0
 11
-59.00031802632421
 21
6.395633003862428
 31
0.0
  0
ENDBLK
  5
352A
330
3528
100
AcDbEntity
  8
0
100
AcDbBlockEnd
  0
BLOCK
  5
357C
330
357B
100
AcDbEntity
  8
0
100
AcDbBlockBegin
  2
ACW155-Bottom
 70
     0
 10
0.0
 20
0.0
 30
0.0
  3
ACW155-Bottom
  1

  0
CIRCLE
  5
357E
330
357B
100
AcDbEntity
  8
0
100
AcDbCircle
 10
50.49968197367582
 20
16.1043669961375
 30
0.0
 40
7.250000000000006
  0
ARC
  5
357F
330
357B
100
AcDbEntity
  8
0
100
AcDbCircle
 10
-48.50031802632422
 20
59.60436699613741
 30
0.0
 40
6.499999999999999
100
AcDbArc
 50
0.0
 51
180.0
  0
LINE
  5
3580
330
357B
100
AcDbEntity
  8
0
100
AcDbLine
 10
-55.00031802632421
 20
42.6043669961375
 30
0.0
 11
-55.00031802632419
 21
59.60436699613751
 31
0.0
  0
ARC
  5
3581
330
357B
100
AcDbEntity
  8
0
100
AcDbCircle
 10
-48.50031802632422
 20
42.60436699613751
 30
0.0
 40
6.499999999999999
100
AcDbArc
 50
180.0
 51
0.0
  0
LINE
  5
3582
330
357B
100
AcDbEntity
  8
0
100
AcDbLine
 10
-42.00031802632421
 20
59.60436699613751
 30
0.0
 11
-42.0003180263242
 21
42.60436699613751
 31
0.0
  0
CIRCLE
  5
3583
330
357B
100
AcDbEntity
  8
0
100
AcDbCircle
 10
-48.50031802632421
 20
88.10436699613751
 30
0.0
 40
7.25
  0
CIRCLE
  5
3584
330
357B
100
AcDbEntity
  8
0
100
AcDbCircle
 10
-48.50031802632422
 20
16.1043669961375
 30
0.0
 40
7.250000000000006
  0
CIRCLE
  5
3585
330
357B
100
AcDbEntity
  8
0
100
AcDbCircle
 10
50.49968197367579
 20
88.10436699613751
 30
0.0
 40
7.25
  0
ARC
  5
3586
330
357B
100
AcDbEntity
  8
0
100
AcDbCircle
 10
50.4996819736758
 20
42.60436699613751
 30
0.0
 40
6.499999999999999
100
AcDbArc
 50
180.0
 51
0.0
  0
LINE
  5
3587
330
357B
100
AcDbEntity
  8
0
100
AcDbLine
 10
56.99968197367581
 20
59.60436699613751
 30
0.0
 11
56.99968197367581
 21
42.60436699613751
 31
0.0
  0
ARC
  5
3588
330
357B
100
AcDbEntity
  8
0
100
AcDbCircle
 10
50.49968197367579
 20
59.60436699613751
 30
0.0
 40
6.499999999999999
100
AcDbArc
 50
0.0
 51
180.0
  0
LINE
  5
3589
330
357B
100
AcDbEntity
  8
0
100
AcDbLine
 10
43.99968197367581
 20
42.6043669961375
 30
0.0
 11
43.9996819736758
 21
59.60436699613751
 31
0.0
  0
ARC
  5
358A
330
357B
100
AcDbEntity
  8
0
100
AcDbCircle
 10
-69.50031802632421
 20
-6.395633003862472
 30
0.0
 40
5.0
100
AcDbArc
 50
180.0
 51
270.0
  0
LINE
  5
358B
330
357B
100
AcDbEntity
  8
0
100
AcDbLine
 10
-74.5003180263242
 20
108.1043669961375
 30
0.0
 11
-74.50031802632421
 21
-5.895633003862457
 31
0.0
  0
ARC
  5
358C
330
357B
100
AcDbEntity
  8
0
100
AcDbCircle
 10
71.49968197367579
 20
-6.395633003862489
 30
0.0
 40
5.0
100
AcDbArc
 50
270.0
 51
0.0
  0
ARC
  5
358D
330
357B
100
AcDbEntity
  8
0
100
AcDbCircle
 10
71.49968197367581
 20
-6.395633003862489
 30
0.0
 40
2.499999999999999
100
AcDbArc
 50
270.0
 51
0.0
  0
LINE
  5
358E
330
357B
100
AcDbEntity
  8
0
100
AcDbLine
 10
76.49968197367579
 20
-5.895633003862489
 30
0.0
 11
76.49968197367581
 21
108.1043669961375
 31
0.0
  0
LINE
  5
358F
330
357B
100
AcDbEntity
  8
0
100
AcDbLine
 10
-69.00031802632421
 20
-11.39563300386247
 30
0.0
 11
-69.00031802632421
 21
-6.395633003862473
 31
0.0
  0
LINE
  5
3590
330
357B
100
AcDbEntity
  8
0
100
AcDbLine
 10
-69.00031802632421
 20
-11.39563300386247
 30
0.0
 11
70.99968197367579
 21
-11.39563300386249
 31
0.0
  0
LINE
  5
3591
330
357B
100
AcDbEntity
  8
0
100
AcDbLine
 10
70.99968197367579
 20
-6.395633003862487
 30
0.0
 11
70.99968197367579
 21
-11.39563300386248
 31
0.0
  0
LINE
  5
3592
330
357B
100
AcDbEntity
  8
0
100
AcDbLine
 10
-74.5003180263242
 20
108.1043669961375
 30
0.0
 11
-69.5003180263242
 21
108.1043669961375
 31
0.0
  0
LINE
  5
3593
330
357B
100
AcDbEntity
  8
0
100
AcDbLine
 10
-69.50031802632421
 20
-5.895633003862474
 30
0.0
 11
-74.50031802632421
 21
-5.895633003862471
 31
0.0
  0
LINE
  5
3594
330
357B
100
AcDbEntity
  8
0
100
AcDbLine
 10
71.49968197367581
 20
108.1043669961375
 30
0.0
 11
76.49968197367581
 21
108.1043669961375
 31
0.0
  0
LINE
  5
3595
330
357B
100
AcDbEntity
  8
0
100
AcDbLine
 10
76.49968197367579
 20
-5.895633003862489
 30
0.0
 11
71.49968197367579
 21
-5.895633003862489
 31
0.0
  0
ARC
  5
3596
330
357B
100
AcDbEntity
  8
0
100
AcDbCircle
 10
-69.50031802632421
 20
-6.395633003862473
 30
0.0
 40
2.499999999999999
100
AcDbArc
 50
180.0
 51
270.0
  0
LINE
  5
3597
330
357B
100
AcDbEntity
  8
0
100
AcDbLine
 10
-74.50031802632421
 20
-6.395633003862472
 30
0.0
 11
-74.50031802632421
 21
-5.895633003862469
 31
0.0
  0
LINE
  5
3598
330
357B
100
AcDbEntity
  8
0
100
AcDbLine
 10
-69.00031802632421
 20
-11.39563300386247
 30
0.0
 11
-69.50031802632421
 21
-11.39563300386247
 31
0.0
  0
LINE
  5
3599
330
357B
100
AcDbEntity
  8
0
100
AcDbLine
 10
-69.50031802632421
 20
-5.895633003862461
 30
0.0
 11
-24.00031802632419
 21
-5.895633003862478
 31
0.0
  0
LINE
  5
359A
330
357B
100
AcDbEntity
  8
0
100
AcDbLine
 10
-69.50031802632421
 20
-8.895633003862473
 30
0.0
 11
-69.00031802632421
 21
-8.895633003862473
 31
0.0
  0
LINE
  5
359B
330
357B
100
AcDbEntity
  8
0
100
AcDbLine
 10
-72.00031802632421
 20
-5.89563300386247
 30
0.0
 11
-72.00031802632421
 21
-6.395633003862473
 31
0.0
  0
LINE
  5
359C
330
357B
100
AcDbEntity
  8
0
100
AcDbLine
 10
-69.00031802632421
 20
-5.89563300386245
 30
0.0
 11
-69.00031802632421
 21
-6.395633003862473
 31
0.0
  0
LINE
  5
359D
330
357B
100
AcDbEntity
  8
0
100
AcDbLine
 10
76.49968197367579
 20
-5.895633003862487
 30
0.0
 11
76.49968197367579
 21
-6.395633003862489
 31
0.0
  0
LINE
  5
359E
330
357B
100
AcDbEntity
  8
0
100
AcDbLine
 10
73.99968197367579
 20
-6.395633003862489
 30
0.0
 11
73.99968197367579
 21
-5.895633003862485
 31
0.0
  0
LINE
  5
359F
330
357B
100
AcDbEntity
  8
0
100
AcDbLine
 10
70.99968197367579
 20
-8.895633003862489
 30
0.0
 11
71.49968197367581
 21
-8.895633003862489
 31
0.0
  0
LINE
  5
35A0
330
357B
100
AcDbEntity
  8
0
100
AcDbLine
 10
71.49968197367579
 20
-11.39563300386249
 30
0.0
 11
70.99968197367579
 21
-11.39563300386248
 31
0.0
  0
LINE
  5
35A1
330
357B
100
AcDbEntity
  8
0
100
AcDbLine
 10
70.99968197367579
 20
-6.395633003862489
 30
0.0
 11
70.99968197367579
 21
-5.895633003862488
 31
0.0
  0
LINE
  5
35A2
330
357B
100
AcDbEntity
  8
0
100
AcDbLine
 10
71.49968197367581
 20
108.1043669961375
 30
0.0
 11
25.99968197367581
 21
108.1043669961375
 31
0.0
  0
ARC
  5
35A3
330
357B
100
AcDbEntity
  8
0
100
AcDbCircle
 10
50.9996819736758
 20
15.10436699613752
 30
0.0
 40
7.0
100
AcDbArc
 50
18.06906037547352
 51
215.0610419786816
  0
ARC
  5
35A4
330
357B
100
AcDbEntity
  8
0
100
AcDbCircle
 10
50.99968197367581
 20
87.10436699613753
 30
0.0
 40
7.000000000000001
100
AcDbArc
 50
18.06906037547563
 51
215.0610419786826
  0
LINE
  5
35A5
330
357B
100
AcDbEntity
  8
0
100
AcDbLine
 10
25.99968197367579
 20
-5.895633003862483
 30
0.0
 11
71.49968197367579
 21
-5.895633003862489
 31
0.0
  0
ARC
  5
35A6
330
357B
100
AcDbEntity
  8
0
100
AcDbCircle
 10
50.9996819736758
 20
59.60436699613751
 30
0.0
 40
6.500000000000013
100
AcDbArc
 50
92.20422750397371
 51
180.0
  0
LINE
  5
35A7
330
357B
100
AcDbEntity
  8
0
100
AcDbLine
 10
44.49968197367581
 20
42.60436699613752
 30
0.0
 11
44.49968197367581
 21
59.60436699613751
 31
0.0
  0
ARC
  5
35A8
330
357B
100
AcDbEntity
  8
0
100
AcDbCircle
 10
50.9996819736758
 20
42.60436699613752
 30
0.0
 40
6.499999999999987
100
AcDbArc
 50
180.0
 51
267.7957724960303
  0
LINE
  5
35A9
330
357B
100
AcDbEntity
  8
0
100
AcDbLine
 10
25.99968197367579
 20
-5.895633003862483
 30
0.0
 11
25.99968197367581
 21
108.1043669961375
 31
0.0
  0
LINE
  5
35AA
330
357B
100
AcDbEntity
  8
0
100
AcDbLine
 10
25.99968197367581
 20
108.1043669961375
 30
0.0
 11
-24.00031802632419
 21
108.1043669961375
 31
0.0
  0
ARC
  5
35AB
330
357B
100
AcDbEntity
  8
0
100
AcDbCircle
 10
-49.00031802632419
 20
59.60436699613753
 30
0.0
 40
6.500000000000014
100
AcDbArc
 50
0.0
 51
87.79577249601322
  0
LINE
  5
35AC
330
357B
100
AcDbEntity
  8
0
100
AcDbLine
 10
-42.5003180263242
 20
59.60436699613753
 30
0.0
 11
-42.5003180263242
 21
42.60436699613754
 31
0.0
  0
ARC
  5
35AD
330
357B
100
AcDbEntity
  8
0
100
AcDbCircle
 10
-49.00031802632419
 20
42.60436699613754
 30
0.0
 40
6.499999999999987
100
AcDbArc
 50
272.2042275039676
 51
0.0
  0
ARC
  5
35AE
330
357B
100
AcDbEntity
  8
0
100
AcDbCircle
 10
-49.0003180263242
 20
15.10436699613754
 30
0.0
 40
7.0
100
AcDbArc
 50
324.9389580213177
 51
161.9309396245263
  0
ARC
  5
35AF
330
357B
100
AcDbEntity
  8
0
100
AcDbCircle
 10
-49.00031802632419
 20
87.10436699613753
 30
0.0
 40
7.000000000000001
100
AcDbArc
 50
324.9389580213186
 51
161.9309396245262
  0
LINE
  5
35B0
330
357B
100
AcDbEntity
  8
0
100
AcDbLine
 10
-69.5003180263242
 20
108.1043669961375
 30
0.0
 11
-24.00031802632418
 21
108.1043669961375
 31
0.0
  0
LINE
  5
35B1
330
357B
100
AcDbEntity
  8
0
100
AcDbLine
 10
-24.00031802632419
 20
-5.895633003862478
 30
0.0
 11
-24.00031802632418
 21
108.1043669961375
 31
0.0
  0
ENDBLK
  5
357D
330
357B
100
AcDbEntity
  8
0
100
AcDbBlockEnd
  0
BLOCK
  5
35B3
330
35B2
100
AcDbEntity
  8
0
100
AcDbBlockBegin
  2
ACW155-ISO
 70
     0
 10
0.0
 20
0.0
 30
0.0
  3
ACW155-ISO
  1

  0
ELLIPSE
  5
35B5
330
35B2
100
AcDbEntity
  8
0
100
AcDbEllipse
 10
-42.95673695708276
 20
-47.45886376642397
 30
0.0
 11
-6.5
 21
-0.0000000000000003
 31
0.0
210
0.0
220
0.0
230
1.0
 40
0.577350269189626
 41
5.497787143782152
 42
5.650083864466836
  0
LINE
  5
35B6
330
35B2
100
AcDbEntity
  8
0
100
AcDbLine
 10
-47.55293103479536
 20
-44.80524987840889
 30
0.0
 11
-47.55293103479536
 21
-42.76400842608957
 31
0.0
  0
ELLIPSE
  5
35B7
330
35B2
100
AcDbEntity
  8
0
100
AcDbEllipse
 10
-42.95673695708276
 20
-45.41762231410465
 30
0.0
 11
-6.5
 21
-0.0000000000000011
 31
0.0
210
0.0
220
0.0
230
1.0
 40
0.577350269189626
 41
5.497787143782153
 42
5.997473249829953
  0
LINE
  5
35B8
330
35B2
100
AcDbEntity
  8
0
100
AcDbLine
 10
-35.53211575462407
 20
-37.86502894052321
 30
0.0
 11
-47.55293103479536
 21
-44.80524987840889
 31
0.0
  0
LINE
  5
35B9
330
35B2
100
AcDbEntity
  8
0
100
AcDbLine
 10
-35.53211575462407
 20
-37.86502894052321
 30
0.0
 11
-35.53211575462407
 21
-35.82378748820389
 31
0.0
  0
LINE
  5
35BA
330
35B2
100
AcDbEntity
  8
0
100
AcDbLine
 10
-47.55293103479536
 20
-42.76400842608957
 30
0.0
 11
-35.53211575462407
 21
-35.82378748820389
 31
0.0
  0
ELLIPSE
  5
35BB
330
35B2
100
AcDbEntity
  8
0
100
AcDbEllipse
 10
-30.93592167691152
 20
-40.51864282853834
 30
0.0
 11
-6.500000000000001
 21
-0.00000000000039
 31
0.0
210
0.0
220
0.0
230
1.0
 40
0.5773502691896258
 41
3.861595887085348
 42
5.497787143781876
  0
ELLIPSE
  5
35BC
330
35B2
100
AcDbEntity
  8
0
100
AcDbEllipse
 10
-30.93592167691152
 20
-38.47740137621902
 30
0.0
 11
6.500000000000001
 21
-0.000000000000385
 31
0.0
210
0.0
220
0.0
230
1.0
 40
0.5773502691896259
 41
0.4392558398895466
 42
2.356194490192583
  0
ELLIPSE
  5
35BD
330
35B2
100
AcDbEntity
  8
0
100
AcDbEllipse
 10
-63.10928022089942
 20
-57.0526985923248
 30
0.0
 11
7.25
 21
-0.0000000000004319
 31
0.0
210
0.0
220
0.0
230
1.0
 40
0.577350269189626
 41
0.3589379622398257
 42
2.649518363799135
  0
ELLIPSE
  5
35BE
330
35B2
100
AcDbEntity
  8
0
100
AcDbEllipse
 10
-63.10928022089942
 20
-59.09394004464413
 30
0.0
 11
-7.250000000000001
 21
-0.0000000000004369
 31
0.0
210
0.0
220
0.0
230
1.0
 40
0.5773502691896259
 41
3.793300069545582
 42
5.551520516976607
  0
ELLIPSE
  5
35BF
330
35B2
100
AcDbEntity
  8
0
100
AcDbEllipse
 10
-12.19759197546801
 20
-27.65882167892663
 30
0.0
 11
7.250000000000007
 21
-0.0000000000004308
 31
0.0
210
0.0
220
0.0
230
1.0
 40
0.5773502691896259
 41
0.3589379622398301
 42
2.649518363799137
  0
ELLIPSE
  5
35C0
330
35B2
100
AcDbEntity
  8
0
100
AcDbEllipse
 10
-12.19759197546801
 20
-29.70006313124596
 30
0.0
 11
-7.250000000000007
 21
-0.0000000000004349
 31
0.0
210
0.0
220
0.0
230
1.0
 40
0.5773502691896258
 41
3.793300069545585
 42
5.551520516976609
  0
ELLIPSE
  5
35C1
330
35B2
100
AcDbEntity
  8
0
100
AcDbEllipse
 10
6.894291116568815
 20
-97.46927934824725
 30
0.0
 11
7.250000000000001
 21
-0.0000000000004316
 31
0.0
210
0.0
220
0.0
230
1.0
 40
0.5773502691896261
 41
1.222430881089241
 42
2.085665339551239
  0
ELLIPSE
  5
35C2
330
35B2
100
AcDbEntity
  8
0
100
AcDbEllipse
 10
6.894291116568815
 20
-99.51052080056658
 30
0.0
 11
-7.250000000000001
 21
0.0000000000000014
 31
0.0
210
0.0
220
0.0
230
1.0
 40
0.5773502691896261
 41
4.36402353467897
 42
5.515570953693528
  0
ELLIPSE
  5
35C3
330
35B2
100
AcDbEntity
  8
0
100
AcDbEllipse
 10
-11.13693180368826
 20
114.2074592572657
 30
0.0
 11
5.0
 21
-0.0000000000002981
 31
0.0
210
0.0
220
0.0
230
1.0
 40
0.577350269189626
 41
0.7853981633976908
 42
2.356194490192587
  0
ELLIPSE
  5
35C4
330
35B2
100
AcDbEntity
  8
0
100
AcDbEllipse
 10
-11.13693180368821
 20
114.2074592572658
 30
0.0
 11
-2.5
 21
-0.0000000000001496
 31
0.0
210
0.0
220
0.0
230
1.0
 40
0.577350269189626
 41
3.926990816987006
 42
5.497787143781902
  0
ELLIPSE
  5
35C5
330
35B2
100
AcDbEntity
  8
0
100
AcDbEllipse
 10
88.56512434361505
 20
56.64445030186108
 30
0.0
 11
2.5
 21
0.0000000000000001
 31
0.0
210
0.0
220
0.0
230
1.0
 40
0.577350269189626
 41
5.497787143782137
 42
7.068583470577035
  0
ELLIPSE
  5
35C6
330
35B2
100
AcDbEntity
  8
0
100
AcDbEllipse
 10
88.56512434361503
 20
56.64445030186105
 30
0.0
 11
5.0
 21
0.0000000000000014
 31
0.0
210
0.0
220
0.0
230
1.0
 40
0.5773502691896261
 41
5.497787143782137
 42
7.068583470577034
  0
ELLIPSE
  5
35C7
330
35B2
100
AcDbEntity
  8
0
100
AcDbEllipse
 10
88.56512434361505
 20
-62.01454831462258
 30
0.0
 11
5.0
 21
0.0000000000000003
 31
0.0
210
0.0
220
0.0
230
1.0
 40
0.577350269189626
 41
5.497787143782137
 42
6.283185307179583
  0
LINE
  5
35C8
330
35B2
100
AcDbEntity
  8
0
100
AcDbLine
 10
92.10065824954774
 20
54.60320884954175
 30
0.0
 11
92.1006582495478
 21
-64.0557897669419
 31
0.0
  0
LINE
  5
35C9
330
35B2
100
AcDbEntity
  8
0
100
AcDbLine
 10
91.74710485895452
 20
-67.66715414438522
 30
0.0
 11
11.13693180368809
 21
-114.2074592572656
 31
0.0
  0
ELLIPSE
  5
35CA
330
35B2
100
AcDbEntity
  8
0
100
AcDbEllipse
 10
-92.10065824954789
 20
-54.60320884954166
 30
0.0
 11
-2.499999999999745
 21
4.330127018922341
 31
0.0
210
0.0
220
0.0
230
1.0
 40
0.5773502691896258
 41
0.785398163397689
 42
2.356194490192585
  0
ELLIPSE
  5
35CB
330
35B2
100
AcDbEntity
  8
0
100
AcDbEllipse
 10
-11.49048519428146
 20
-8.062903736661226
 30
0.0
 11
-1.250000000000003
 21
2.165063509461095
 31
0.0
210
0.0
220
0.0
230
1.0
 40
0.5773502691896259
 41
0.7853981633974457
 42
1.570796326794898
  0
ELLIPSE
  5
35CC
330
35B2
100
AcDbEntity
  8
0
100
AcDbEllipse
 10
7.601397897755362
 20
-112.1662178049463
 30
0.0
 11
2.500000000000004
 21
-4.33012701892219
 31
0.0
210
0.0
220
0.0
230
1.0
 40
0.5773502691896259
 41
5.497787143782137
 42
7.068583470577033
  0
ELLIPSE
  5
35CD
330
35B2
100
AcDbEntity
  8
0
100
AcDbEllipse
 10
88.21157095302178
 20
-65.62591269206591
 30
0.0
 11
2.500000000000003
 21
-4.330127018922191
 31
0.0
210
0.0
220
0.0
230
0.9999999999999998
 40
0.5773502691896258
 41
0.0
 42
0.7853981633974457
  0
ELLIPSE
  5
35CE
330
35B2
100
AcDbEntity
  8
0
100
AcDbEllipse
 10
7.601397897755362
 20
-112.1662178049463
 30
0.0
 11
1.250000000000001
 21
-2.165063509461095
 31
0.0
210
0.0
220
0.0
230
1.0
 40
0.5773502691896259
 41
5.497787143782137
 42
7.06858347057703
  0
LINE
  5
35CF
330
35B2
100
AcDbEntity
  8
0
100
AcDbLine
 10
90.33289129658141
 20
57.66507102802074
 30
0.0
 11
90.33289129658141
 21
55.62382957570144
 31
0.0
  0
LINE
  5
35D0
330
35B2
100
AcDbEntity
  8
0
100
AcDbLine
 10
-9.369164850721833
 20
-3.430918633058244
 30
0.0
 11
-9.369164850721842
 21
115.2280799834254
 31
0.0
  0
LINE
  5
35D1
330
35B2
100
AcDbEntity
  8
0
100
AcDbLine
 10
51.64185285643924
 20
-39.61339661924892
 30
0.0
 11
-9.015611460128551
 21
-4.592793267718398
 31
0.0
  0
ELLIPSE
  5
35D2
330
35B2
100
AcDbEntity
  8
0
100
AcDbEllipse
 10
-11.1369318036882
 20
-4.451539359217893
 30
0.0
 11
2.5
 21
-0.0000000000001492
 31
0.0
210
0.0
220
0.0
230
1.0
 40
0.577350269189626
 41
0.7853981633976908
 42
2.356194490192587
  0
LINE
  5
35D3
330
35B2
100
AcDbEntity
  8
0
100
AcDbLine
 10
-12.90469875665458
 20
115.2280799834254
 30
0.0
 11
-12.90469875665455
 21
-3.430918633058244
 31
0.0
  0
LINE
  5
35D4
330
35B2
100
AcDbEntity
  8
0
100
AcDbLine
 10
9.369164850721709
 20
-113.186838531106
 30
0.0
 11
7.601397897755362
 21
-114.2074592572656
 31
0.0
  0
LINE
  5
35D5
330
35B2
100
AcDbEntity
  8
0
100
AcDbLine
 10
-13.25825214724783
 20
-7.042283010501568
 30
0.0
 11
-93.86842520251423
 21
-53.58258812338201
 31
0.0
  0
ELLIPSE
  5
35D6
330
35B2
100
AcDbEntity
  8
0
100
AcDbEllipse
 10
-92.10065824954789
 20
-54.60320884954166
 30
0.0
 11
1.250000000000131
 21
-2.16506350946102
 31
0.0
210
0.0
220
0.0
230
1.0
 40
0.5773502691896259
 41
3.926990816986997
 42
5.497787143781894
  0
LINE
  5
35D7
330
35B2
100
AcDbEntity
  8
0
100
AcDbLine
 10
-92.10065824954789
 20
-56.64445030186097
 30
0.0
 11
-91.74710485895463
 21
-56.44032615662907
 31
0.0
  0
ELLIPSE
  5
35D8
330
35B2
100
AcDbEntity
  8
0
100
AcDbEllipse
 10
-10.78337841309491
 20
-5.613413993878055
 30
0.0
 11
-1.250000000000127
 21
-2.165063509461022
 31
0.0
210
0.0
220
0.0
230
1.0
 40
0.5773502691896257
 41
0.7853981633976908
 42
2.356194490192587
  0
LINE
  5
35D9
330
35B2
100
AcDbEntity
  8
0
100
AcDbLine
 10
-10.78337841309491
 20
-7.654655446197367
 30
0.0
 11
50.1046642016859
 21
-42.80838324027045
 31
0.0
  0
LINE
  5
35DA
330
35B2
100
AcDbEntity
  8
0
100
AcDbLine
 10
93.56512434361503
 20
56.64445030186105
 30
0.0
 11
93.56512434361505
 21
-62.01454831462257
 31
0.0
  0
LINE
  5
35DB
330
35B2
100
AcDbEntity
  8
0
100
AcDbLine
 10
90.71157095302178
 20
-69.95603971098811
 30
0.0
 11
10.10139789775536
 21
-116.4963448238685
 31
0.0
  0
LINE
  5
35DC
330
35B2
100
AcDbEntity
  8
0
100
AcDbLine
 10
-14.672465709621
 20
116.2487007095851
 30
0.0
 11
-31.99658184869137
 21
106.2466175932204
 31
0.0
  0
LINE
  5
35DD
330
35B2
100
AcDbEntity
  8
0
100
AcDbLine
 10
-12.90469875665458
 20
115.2280799834254
 30
0.0
 11
-30.228814895725
 21
105.2259968670607
 31
0.0
  0
LINE
  5
35DE
330
35B2
100
AcDbEntity
  8
0
100
AcDbLine
 10
-95.63619215548062
 20
-24.39283535521579
 30
0.0
 11
-95.63619215548062
 21
-52.56196739722234
 31
0.0
  0
LINE
  5
35DF
330
35B2
100
AcDbEntity
  8
0
100
AcDbLine
 10
-93.86842520251423
 20
-53.58258812338201
 30
0.0
 11
-93.86842520251427
 21
-25.41345608137545
 31
0.0
  0
LINE
  5
35E0
330
35B2
100
AcDbEntity
  8
0
100
AcDbLine
 10
-59.92729970555995
 20
-75.21974751796675
 30
0.0
 11
-92.10065824954789
 21
-56.64445030186097
 31
0.0
  0
LINE
  5
35E1
330
35B2
100
AcDbEntity
  8
0
100
AcDbLine
 10
-59.5737463149667
 20
-75.01562337273483
 30
0.0
 11
-59.92729970555995
 21
-75.21974751796675
 31
0.0
  0
LINE
  5
35E2
330
35B2
100
AcDbEntity
  8
0
100
AcDbLine
 10
-92.10065824954789
 20
-58.6856917541803
 30
0.0
 11
-59.92729970555995
 21
-77.26098897028606
 31
0.0
  0
LINE
  5
35E3
330
35B2
100
AcDbEntity
  8
0
100
AcDbLine
 10
-59.92729970555995
 20
-77.26098897028606
 30
0.0
 11
-59.92729970555995
 21
-75.21974751796675
 31
0.0
  0
LINE
  5
35E4
330
35B2
100
AcDbEntity
  8
0
100
AcDbLine
 10
-57.80597936200035
 20
-76.03624409889448
 30
0.0
 11
-59.92729970555995
 21
-77.26098897028606
 31
0.0
  0
LINE
  5
35E5
330
35B2
100
AcDbEntity
  8
0
100
AcDbLine
 10
-31.99658184869137
 20
106.2466175932204
 30
0.0
 11
-30.228814895725
 21
105.2259968670607
 31
0.0
  0
LINE
  5
35E6
330
35B2
100
AcDbEntity
  8
0
100
AcDbLine
 10
-95.63619215548062
 20
-24.39283535521579
 30
0.0
 11
-67.35192090801875
 21
-8.062903736661258
 31
0.0
  0
LINE
  5
35E7
330
35B2
100
AcDbEntity
  8
0
100
AcDbLine
 10
-67.35192090801875
 20
-8.062903736661258
 30
0.0
 11
-31.99658184869136
 21
65.42178854683412
 31
0.0
  0
LINE
  5
35E8
330
35B2
100
AcDbEntity
  8
0
100
AcDbLine
 10
-31.99658184869136
 20
65.42178854683412
 30
0.0
 11
-31.99658184869137
 21
106.2466175932204
 31
0.0
  0
LINE
  5
35E9
330
35B2
100
AcDbEntity
  8
0
100
AcDbLine
 10
-30.228814895725
 20
105.2259968670607
 30
0.0
 11
-30.22881489572499
 21
64.40116782067447
 31
0.0
  0
LINE
  5
35EA
330
35B2
100
AcDbEntity
  8
0
100
AcDbLine
 10
-30.22881489572499
 20
64.40116782067447
 30
0.0
 11
-65.58415395505237
 21
-9.083524462820911
 31
0.0
  0
LINE
  5
35EB
330
35B2
100
AcDbEntity
  8
0
100
AcDbLine
 10
-65.58415395505237
 20
-9.083524462820911
 30
0.0
 11
-93.86842520251427
 21
-25.41345608137545
 31
0.0
  0
LINE
  5
35EC
330
35B2
100
AcDbEntity
  8
0
100
AcDbLine
 10
-93.86842520251427
 20
-25.41345608137545
 30
0.0
 11
-95.63619215548062
 21
-24.39283535521579
 31
0.0
  0
LINE
  5
35ED
330
35B2
100
AcDbEntity
  8
0
100
AcDbLine
 10
-31.99658184869136
 20
65.42178854683412
 30
0.0
 11
-30.22881489572499
 21
64.40116782067447
 31
0.0
  0
LINE
  5
35EE
330
35B2
100
AcDbEntity
  8
0
100
AcDbLine
 10
-67.35192090801875
 20
-8.062903736661258
 30
0.0
 11
-65.58415395505237
 21
-9.083524462820911
 31
0.0
  0
LINE
  5
35EF
330
35B2
100
AcDbEntity
  8
0
100
AcDbLine
 10
90.33289129658141
 20
57.66507102802074
 30
0.0
 11
-9.369164850721833
 21
115.2280799834254
 31
0.0
  0
LINE
  5
35F0
330
35B2
100
AcDbEntity
  8
0
100
AcDbLine
 10
-7.601397897755521
 20
116.2487007095851
 30
0.0
 11
92.10065824954774
 21
58.68569175418038
 31
0.0
  0
LINE
  5
35F1
330
35B2
100
AcDbEntity
  8
0
100
AcDbLine
 10
7.247844507162088
 20
-111.5538453692505
 30
0.0
 11
-91.7471048589546
 21
-54.39908470430973
 31
0.0
  0
LINE
  5
35F2
330
35B2
100
AcDbEntity
  8
0
100
AcDbLine
 10
7.247844507162088
 20
-113.5950868215698
 30
0.0
 11
-91.7471048589546
 21
-56.44032615662904
 31
0.0
  0
LINE
  5
35F3
330
35B2
100
AcDbEntity
  8
0
100
AcDbLine
 10
90.33289129658141
 20
55.62382957570143
 30
0.0
 11
73.008775157511
 21
45.62174645933676
 31
0.0
  0
LINE
  5
35F4
330
35B2
100
AcDbEntity
  8
0
100
AcDbLine
 10
73.008775157511
 20
45.62174645933676
 30
0.0
 11
74.77654211047736
 21
44.60112573317711
 31
0.0
  0
LINE
  5
35F5
330
35B2
100
AcDbEntity
  8
0
100
AcDbLine
 10
92.10065824954774
 20
54.60320884954175
 30
0.0
 11
74.77654211047736
 21
44.60112573317711
 31
0.0
  0
LINE
  5
35F6
330
35B2
100
AcDbEntity
  8
0
100
AcDbLine
 10
91.74710485895452
 20
-64.25991391217381
 30
0.0
 11
92.1006582495478
 21
-64.0557897669419
 31
0.0
  0
LINE
  5
35F7
330
35B2
100
AcDbEntity
  8
0
100
AcDbLine
 10
74.77654211047736
 20
44.60112573317711
 30
0.0
 11
74.77654211047738
 21
3.776296686790816
 31
0.0
  0
LINE
  5
35F8
330
35B2
100
AcDbEntity
  8
0
100
AcDbLine
 10
74.77654211047738
 20
3.776296686790816
 30
0.0
 11
39.42120305115
 21
-69.70839559670458
 31
0.0
  0
LINE
  5
35F9
330
35B2
100
AcDbEntity
  8
0
100
AcDbLine
 10
39.42120305115
 20
-69.70839559670458
 30
0.0
 11
11.13693180368809
 21
-86.03832721525911
 31
0.0
  0
LINE
  5
35FA
330
35B2
100
AcDbEntity
  8
0
100
AcDbLine
 10
11.13693180368809
 20
-86.03832721525911
 30
0.0
 11
11.1369318036881
 21
-114.2074592572656
 31
0.0
  0
LINE
  5
35FB
330
35B2
100
AcDbEntity
  8
0
100
AcDbLine
 10
91.74710485895452
 20
-67.66715414438522
 30
0.0
 11
91.74710485895452
 21
-64.25991391217381
 31
0.0
  0
LINE
  5
35FC
330
35B2
100
AcDbEntity
  8
0
100
AcDbLine
 10
7.247844507162088
 20
-111.5538453692505
 30
0.0
 11
9.369164850721709
 21
-110.329100497859
 31
0.0
  0
LINE
  5
35FD
330
35B2
100
AcDbEntity
  8
0
100
AcDbLine
 10
7.247844507162088
 20
-113.5950868215698
 30
0.0
 11
7.247844507162088
 21
-111.5538453692505
 31
0.0
  0
LINE
  5
35FE
330
35B2
100
AcDbEntity
  8
0
100
AcDbLine
 10
9.369164850721709
 20
-112.3703419501783
 30
0.0
 11
7.247844507162088
 21
-113.5950868215698
 31
0.0
  0
LINE
  5
35FF
330
35B2
100
AcDbEntity
  8
0
100
AcDbLine
 10
11.13693180368809
 20
-86.03832721525911
 30
0.0
 11
9.369164850721723
 21
-85.01770648909943
 31
0.0
  0
LINE
  5
3600
330
35B2
100
AcDbEntity
  8
0
100
AcDbLine
 10
9.369164850721723
 20
-85.01770648909943
 30
0.0
 11
9.369164850721727
 21
-113.186838531106
 31
0.0
  0
LINE
  5
3601
330
35B2
100
AcDbEntity
  8
0
100
AcDbLine
 10
-24.57196064623257
 20
-95.63216204115988
 30
0.0
 11
7.601397897755362
 21
-114.2074592572656
 31
0.0
  0
LINE
  5
3602
330
35B2
100
AcDbEntity
  8
0
100
AcDbLine
 10
-24.57196064623257
 20
-97.6734034934792
 30
0.0
 11
-24.57196064623257
 21
-95.63216204115988
 31
0.0
  0
LINE
  5
3603
330
35B2
100
AcDbEntity
  8
0
100
AcDbLine
 10
7.601397897755362
 20
-116.2487007095849
 30
0.0
 11
-24.57196064623257
 21
-97.6734034934792
 31
0.0
  0
LINE
  5
3604
330
35B2
100
AcDbEntity
  8
0
100
AcDbLine
 10
-24.21840725563933
 20
-95.42803789592797
 30
0.0
 11
-24.57196064623257
 21
-95.63216204115988
 31
0.0
  0
ELLIPSE
  5
3605
330
35B2
100
AcDbEntity
  8
0
100
AcDbEllipse
 10
7.954951288348626
 20
-96.85690691255148
 30
0.0
 11
-7.0
 21
-0.000000000000001
 31
0.0
210
0.0
220
0.0
230
1.0
 40
0.5773502691896261
 41
4.508958240113606
 42
6.02788278557718
  0
ELLIPSE
  5
3606
330
35B2
100
AcDbEntity
  8
0
100
AcDbEllipse
 10
7.954951288348626
 20
-94.81566546023216
 30
0.0
 11
-7.000000000000001
 21
-0.0000000000000011
 31
0.0
210
0.0
220
0.0
230
1.0
 40
0.5773502691896261
 41
4.508958240113606
 42
8.057412374245565
  0
LINE
  5
3607
330
35B2
100
AcDbEntity
  8
0
100
AcDbLine
 10
73.00877515751101
 20
4.796917412950465
 30
0.0
 11
73.008775157511
 21
45.62174645933676
 31
0.0
  0
LINE
  5
3608
330
35B2
100
AcDbEntity
  8
0
100
AcDbLine
 10
74.77654211047738
 20
3.776296686790816
 30
0.0
 11
73.00877515751101
 21
4.796917412950465
 31
0.0
  0
LINE
  5
3609
330
35B2
100
AcDbEntity
  8
0
100
AcDbLine
 10
37.65343609818363
 20
-68.68777487054493
 30
0.0
 11
73.00877515751101
 21
4.796917412950465
 31
0.0
  0
LINE
  5
360A
330
35B2
100
AcDbEntity
  8
0
100
AcDbLine
 10
39.42120305115
 20
-69.70839559670458
 30
0.0
 11
37.65343609818363
 21
-68.68777487054493
 31
0.0
  0
LINE
  5
360B
330
35B2
100
AcDbEntity
  8
0
100
AcDbLine
 10
9.369164850721723
 20
-85.01770648909943
 30
0.0
 11
37.65343609818363
 21
-68.68777487054493
 31
0.0
  0
ELLIPSE
  5
360C
330
35B2
100
AcDbEntity
  8
0
100
AcDbEllipse
 10
41.93076475527088
 20
-83.64227119854419
 30
0.0
 11
-1.650000000000002
 21
-2.857883832488654
 31
0.0
210
0.0
220
0.0
230
1.0
 40
0.5773502691896255
 41
4.84209151754062
 42
7.983684171130377
  0
LINE
  5
360D
330
35B2
100
AcDbEntity
  8
0
100
AcDbLine
 10
81.90088393834679
 20
3.853269526912992
 30
0.0
 11
40.08121442310178
 21
-83.06728130045939
 31
0.0
  0
ELLIPSE
  5
360E
330
35B2
100
AcDbEntity
  8
0
100
AcDbEllipse
 10
83.75043427051581
 20
3.278279628828206
 30
0.0
 11
1.64999999999996
 21
2.85788383248858
 31
0.0
210
0.0
220
0.0
230
1.0
 40
0.5773502691896257
 41
4.842091517540611
 42
7.983684171130402
  0
LINE
  5
360F
330
35B2
100
AcDbEntity
  8
0
100
AcDbLine
 10
43.78031508743984
 20
-84.21726109662905
 30
0.0
 11
85.59998460268488
 21
2.703289730743385
 31
0.0
  0
ELLIPSE
  5
3610
330
35B2
100
AcDbEntity
  8
0
100
AcDbEllipse
 10
-63.07459225093154
 20
-23.01740006466054
 30
0.0
 11
-1.649999999999999
 21
-2.857883832488649
 31
0.0
210
0.0
220
0.0
230
1.0
 40
0.5773502691896258
 41
4.842091517540602
 42
7.19448877132363
  0
LINE
  5
3611
330
35B2
100
AcDbEntity
  8
0
100
AcDbLine
 10
-64.92414258310062
 20
-22.44241016657569
 30
0.0
 11
-23.10447306785562
 21
64.47814066079674
 31
0.0
  0
ELLIPSE
  5
3612
330
35B2
100
AcDbEntity
  8
0
100
AcDbEllipse
 10
-21.25492273568653
 20
63.90315076271186
 30
0.0
 11
1.649999999999999
 21
2.857883832488649
 31
0.0
210
0.0
220
0.0
230
1.0
 40
0.5773502691896255
 41
5.371881843035451
 42
7.98368417113039
  0
ELLIPSE
  5
3613
330
35B2
100
AcDbEntity
  8
0
100
AcDbEllipse
 10
38.31344747013539
 20
-82.04666057429978
 30
0.0
 11
2.25281778444792
 21
-1.08388746190514
 31
0.0
210
0.0
220
0.0
230
1.0
 40
0.1056050015713052
 41
5.663723717854963
 42
6.283185307177752
  0
ELLIPSE
  5
3614
330
35B2
100
AcDbEntity
  8
0
100
AcDbEllipse
 10
42.01254813447349
 20
-83.19664037046937
 30
0.0
 11
-2.252817784447896
 21
1.083887461905188
 31
0.0
210
0.0
220
0.0
230
1.0
 40
0.1056050015713173
 41
1.555404553385162
 42
2.522131064278847
  0
ELLIPSE
  5
3615
330
35B2
100
AcDbEntity
  8
0
100
AcDbEllipse
 10
41.16708368978209
 20
-83.20135972980921
 30
0.0
 11
-0.6212115060498635
 21
-1.075969890724745
 31
0.0
210
0.0
220
0.0
230
1.0
 40
0.5773502691896255
 41
5.806495310907063
 42
7.983684171130445
  0
LINE
  5
3616
330
35B2
100
AcDbEntity
  8
0
100
AcDbLine
 10
41.86342426394062
 20
-83.41783872408363
 30
0.0
 11
40.69876266977975
 21
-82.85515733021481
 31
0.0
  0
ELLIPSE
  5
3617
330
35B2
100
AcDbEntity
  8
0
100
AcDbEllipse
 10
80.13311698538041
 20
4.873890253072667
 30
0.0
 11
2.25281778444792
 21
-1.083887461905143
 31
0.0
210
0.0
220
0.0
230
1.0
 40
0.1056050015713053
 41
5.663723717854143
 42
6.283185307176785
  0
ELLIPSE
  5
3618
330
35B2
100
AcDbEntity
  8
0
100
AcDbEllipse
 10
83.83221764971853
 20
3.723910456903043
 30
0.0
 11
2.252817784447908
 21
-1.083887461905164
 31
0.0
210
0.0
220
0.0
230
1.0
 40
0.1056050015713171
 41
4.696997206968905
 42
5.663723717856509
  0
ELLIPSE
  5
3619
330
35B2
100
AcDbEntity
  8
0
100
AcDbEllipse
 10
82.98675320502704
 20
3.71919109756317
 30
0.0
 11
0.6212115060498256
 21
1.075969890724679
 31
0.0
210
0.0
220
0.0
230
1.0
 40
0.5773502691896257
 41
4.84209151754063
 42
6.759875303452028
  0
LINE
  5
361A
330
35B2
100
AcDbEntity
  8
0
100
AcDbLine
 10
82.5317021228553
 20
4.058982409892042
 30
0.0
 11
83.68309377918567
 21
3.502712103288816
 31
0.0
  0
LINE
  5
361B
330
35B2
100
AcDbEntity
  8
0
100
AcDbLine
 10
41.86342426394062
 20
-83.41783872408363
 30
0.0
 11
83.68309377918567
 21
3.502712103288807
 31
0.0
  0
ELLIPSE
  5
361C
330
35B2
100
AcDbEntity
  8
0
100
AcDbEllipse
 10
-63.07459225093161
 20
-23.01740006466053
 30
0.0
 11
2.25281778444792
 21
-1.083887461905138
 31
0.0
210
0.0
220
0.0
230
1.0
 40
0.1056050015713093
 41
4.696997206968968
 42
6.283185307179592
  0
ELLIPSE
  5
361D
330
35B2
100
AcDbEntity
  8
0
100
AcDbEllipse
 10
-62.07050636345389
 20
-23.59710932208521
 30
0.0
 11
-1.028788493950142
 21
-1.781913941763915
 31
0.0
210
0.0
220
0.0
230
1.0
 40
0.5773502691896257
 41
4.842091517540631
 42
6.792975722343556
  0
LINE
  5
361E
330
35B2
100
AcDbEntity
  8
0
100
AcDbLine
 10
-64.54076441840081
 20
-22.6022946410849
 30
0.0
 11
-63.22371612146444
 21
-23.23859841827489
 31
0.0
  0
ELLIPSE
  5
361F
330
35B2
100
AcDbEntity
  8
0
100
AcDbEllipse
 10
-62.92185603783373
 20
-23.10558235840752
 30
0.0
 11
-1.444242301209978
 21
-2.50150104413588
 31
0.0
210
0.0
220
0.0
230
1.0
 40
0.5773502691896252
 41
4.842091517540616
 42
6.792975722343557
  0
ELLIPSE
  5
3620
330
35B2
100
AcDbEntity
  8
0
100
AcDbEllipse
 10
-64.57058919250738
 20
-22.64653431180774
 30
0.0
 11
0.4505635568895798
 21
-0.2167774923810374
 31
0.0
210
0.0
220
0.0
230
1.0
 40
0.1056050015713104
 41
1.555404553385198
 42
2.522131064279026
  0
LINE
  5
3621
330
35B2
100
AcDbEntity
  8
0
100
AcDbLine
 10
-22.72109490315578
 20
64.3182561862876
 30
0.0
 11
-21.4040466062194
 21
63.6819524090976
 31
0.0
  0
LINE
  5
3622
330
35B2
100
AcDbEntity
  8
0
100
AcDbLine
 10
-22.72109490315578
 20
64.3182561862876
 30
0.0
 11
-64.54076441840081
 21
-22.60229464108491
 31
0.0
  0
LINE
  5
3623
330
35B2
100
AcDbEntity
  8
0
100
AcDbLine
 10
-21.4040466062194
 20
63.6819524090976
 30
0.0
 11
-63.22371612146444
 21
-23.23859841827488
 31
0.0
  0
ELLIPSE
  5
3624
330
35B2
100
AcDbEntity
  8
0
100
AcDbEllipse
 10
-22.75091967726234
 20
64.27401651556476
 30
0.0
 11
0.4505635568895796
 21
-0.2167774923810385
 31
0.0
210
0.0
220
0.0
230
1.0
 40
0.1056050015713119
 41
1.555404553385091
 42
2.522131064278937
  0
ELLIPSE
  5
3625
330
35B2
100
AcDbEntity
  8
0
100
AcDbEllipse
 10
-21.25492273568653
 20
63.90315076271182
 30
0.0
 11
2.252817784447905
 21
-1.083887461905171
 31
0.0
210
0.0
220
0.0
230
0.9999999999999998
 40
0.1056050015713144
 41
4.696997206968912
 42
6.283185307179554
  0
ELLIPSE
  5
3626
330
35B2
100
AcDbEntity
  8
0
100
AcDbEllipse
 10
-20.25083684820899
 20
63.32344150528719
 30
0.0
 11
1.028788493950099
 21
1.781913941763841
 31
0.0
210
0.0
220
0.0
230
0.9999999999999998
 40
0.5773502691896255
 41
5.773394892015634
 42
7.983684171130406
  0
ELLIPSE
  5
3627
330
35B2
100
AcDbEntity
  8
0
100
AcDbEllipse
 10
-21.10218652258881
 20
63.81496846896489
 30
0.0
 11
1.444242301209935
 21
2.501501044135806
 31
0.0
210
0.0
220
0.0
230
1.0
 40
0.5773502691896257
 41
5.77339489201561
 42
7.983684171130407
  0
SPLINE
  5
3628
330
35B2
100
AcDbEntity
  8
0
100
AcDbSpline
210
0.0
220
0.0
230
1.0
 70
     8
 71
     3
 72
    18
 73
    14
 74
     0
 42
0.000000001
 43
0.0000000001
 40
3.004176653892733
 40
3.004176653892733
 40
3.004176653892733
 40
3.004176653892733
 40
3.047232881330304
 40
3.047232881330304
 40
3.209316048101312
 40
3.209316048101312
 40
3.372981554093076
 40
3.372981554093076
 40
3.54783876343052
 40
3.54783876343052
 40
3.734099438325511
 40
3.734099438325511
 40
3.797288279831274
 40
3.797288279831274
 40
3.797288279831274
 40
3.797288279831274
 10
40.33110506476547
 20
-84.0062534001364
 30
0.0
 10
40.33110506476548
 20
-84.0062534001364
 30
0.0
 10
40.33094129789806
 20
-84.00497021154862
 30
0.0
 10
40.32991096172434
 20
-83.99299407732312
 30
0.0
 10
40.32855344667383
 20
-83.96601636629723
 30
0.0
 10
40.33320831809256
 20
-83.88408354657611
 30
0.0
 10
40.33924232530639
 20
-83.82892208438253
 30
0.0
 10
40.36376172724948
 20
-83.69459814815712
 30
0.0
 10
40.38303945971716
 20
-83.6140777545445
 30
0.0
 10
40.43798637132704
 20
-83.43486262199405
 30
0.0
 10
40.47462019452537
 20
-83.33533476920784
 30
0.0
 10
40.5337842709797
 20
-83.19969454408312
 30
0.0
 10
40.54962783045874
 20
-83.1651282728739
 30
0.0
 10
40.56626525458331
 20
-83.13054803620492
 30
0.0
  0
LINE
  5
3629
330
35B2
100
AcDbEntity
  8
0
100
AcDbLine
 10
40.5662652545833
 20
-83.13054803620495
 30
0.0
 11
82.38593476982835
 21
3.790002791167506
 31
0.0
  0
SPLINE
  5
362A
330
35B2
100
AcDbEntity
  8
0
100
AcDbSpline
210
0.0
220
0.0
230
1.0
 70
     8
 71
     3
 72
    18
 73
    14
 74
     0
 42
0.000000001
 43
0.0000000001
 40
3.797288279831319
 40
3.797288279831319
 40
3.797288279831319
 40
3.797288279831319
 40
4.000204481840204
 40
4.000204481840204
 40
4.204456266598941
 40
4.204456266598941
 40
4.400595702492222
 40
4.400595702492222
 40
4.582141927472449
 40
4.582141927472449
 40
4.749389415788352
 40
4.749389415788352
 40
4.849804980081734
 40
4.849804980081734
 40
4.849804980081734
 40
4.849804980081734
 10
82.38593476982833
 20
3.790002791167523
 30
0.0
 10
82.43936197048782
 20
3.901049142425589
 30
0.0
 10
82.50108876605333
 20
4.012175899362189
 30
0.0
 10
82.63539686966641
 20
4.22360945567207
 30
0.0
 10
82.70805252122331
 20
4.323826928277334
 30
0.0
 10
82.85162425093481
 20
4.499000478099768
 30
0.0
 10
82.92250364194444
 20
4.574775998715443
 30
0.0
 10
83.04911821720146
 20
4.694998702938741
 30
0.0
 10
83.10558567986523
 20
4.74131755893695
 30
0.0
 10
83.19434977971328
 20
4.805991337560469
 30
0.0
 10
83.22817251841875
 20
4.82620710919666
 30
0.0
 10
83.25933064056988
 20
4.842864438803431
 30
0.0
 10
83.26582225836734
 20
4.845616659011851
 30
0.0
 10
83.26582225836734
 20
4.845616659011868
 30
0.0
  0
ARC
  5
362B
330
35B2
100
AcDbEntity
  8
0
100
AcDbCircle
 10
-63.0745922509315
 20
-23.01740006466058
 30
0.0
 40
2.500000000000072
100
AcDbArc
 50
284.0791249064057
 51
334.3066190955024
  0
LINE
  5
362C
330
35B2
100
AcDbEntity
  8
0
100
AcDbLine
 10
-62.46643816764863
 20
-25.44230183813228
 30
0.0
 11
-63.47767627044234
 21
-25.69591564967429
 31
0.0
  0
ARC
  5
362D
330
35B2
100
AcDbEntity
  8
0
100
AcDbCircle
 10
-21.25492273568659
 20
63.90315076271193
 30
0.0
 40
2.50000000000008
100
AcDbArc
 50
334.3066190954995
 51
15.92087509359396
  0
LINE
  5
362E
330
35B2
100
AcDbEntity
  8
0
100
AcDbLine
 10
-18.85081915653671
 20
64.58892476390953
 30
0.0
 11
-19.13680220438758
 21
65.59148955597466
 31
0.0
  0
LINE
  5
362F
330
35B2
100
AcDbEntity
  8
0
100
AcDbLine
 10
-60.82177446648369
 20
-24.10128752656567
 30
0.0
 11
-19.00210495123871
 21
62.81926330080671
 31
0.0
  0
ELLIPSE
  5
3630
330
35B2
100
AcDbEntity
  8
0
100
AcDbEllipse
 10
74.06943532929078
 20
17.24849027209829
 30
0.0
 11
3.25000000000034
 21
-5.629165124598656
 31
0.0
210
0.0
220
0.0
230
1.0
 40
0.5773502691896258
 41
3.926990816987
 42
5.264918965523881
  0
ELLIPSE
  5
3631
330
35B2
100
AcDbEntity
  8
0
100
AcDbEllipse
 10
74.06943532929078
 20
31.12893214786963
 30
0.0
 11
-3.250000000000003
 21
5.629165124598848
 31
0.0
210
0.0
220
0.0
230
1.0
 40
0.5773502691896258
 41
0.2754335247933703
 42
0.7853981633974476
  0
LINE
  5
3632
330
35B2
100
AcDbEntity
  8
0
100
AcDbLine
 10
69.47324125157826
 20
33.78254603588475
 30
0.0
 11
69.47324125157824
 21
19.90210416011342
 31
0.0
  0
ELLIPSE
  5
3633
330
35B2
100
AcDbEntity
  8
0
100
AcDbEllipse
 10
52.85623189369438
 20
-20.71860074104098
 30
0.0
 11
1.250000000000131
 21
-2.165063509461022
 31
0.0
210
0.0
220
0.0
230
1.0
 40
0.5773502691896257
 41
3.926990816987
 42
5.497787143781899
  0
ELLIPSE
  5
3634
330
35B2
100
AcDbEntity
  8
0
100
AcDbEllipse
 10
52.85623189369437
 20
-4.388669122486454
 30
0.0
 11
1.250000000000131
 21
-2.165063509461022
 31
0.0
210
0.0
220
0.0
230
1.0
 40
0.5773502691896257
 41
3.926990816986998
 42
5.497787143781893
  0
ELLIPSE
  5
3635
330
35B2
100
AcDbEntity
  8
0
100
AcDbEllipse
 10
52.85623189369438
 20
11.94126249606809
 30
0.0
 11
1.250000000000131
 21
-2.165063509461022
 31
0.0
210
0.0
220
0.0
230
1.0
 40
0.5773502691896257
 41
3.926990816987014
 42
5.497787143781879
  0
ELLIPSE
  5
3636
330
35B2
100
AcDbEntity
  8
0
100
AcDbEllipse
 10
52.85623189369438
 20
44.60112573317712
 30
0.0
 11
1.250000000000131
 21
-2.165063509461022
 31
0.0
210
0.0
220
0.0
230
1.0
 40
0.5773502691896257
 41
3.926990816987004
 42
5.497787143781899
  0
ELLIPSE
  5
3637
330
35B2
100
AcDbEntity
  8
0
100
AcDbEllipse
 10
63.4628336114926
 20
13.98250394838741
 30
0.0
 11
1.250000000000131
 21
-2.165063509461022
 31
0.0
210
0.0
220
0.0
230
1.0
 40
0.5773502691896257
 41
3.926990816987014
 42
5.497787143781879
  0
ELLIPSE
  5
3638
330
35B2
100
AcDbEntity
  8
0
100
AcDbEllipse
 10
63.4628336114926
 20
46.64236718549644
 30
0.0
 11
1.250000000000131
 21
-2.165063509461022
 31
0.0
210
0.0
220
0.0
230
1.0
 40
0.5773502691896257
 41
3.926990816986995
 42
5.497787143781893
  0
ELLIPSE
  5
3639
330
35B2
100
AcDbEntity
  8
0
100
AcDbEllipse
 10
74.0694353292908
 20
48.68360863781576
 30
0.0
 11
1.250000000000131
 21
-2.165063509461022
 31
0.0
210
0.0
220
0.0
230
1.0
 40
0.5773502691896257
 41
3.926990816986995
 42
5.497787143781893
  0
ELLIPSE
  5
363A
330
35B2
100
AcDbEntity
  8
0
100
AcDbEllipse
 10
63.4628336114926
 20
30.31243556694192
 30
0.0
 11
1.250000000000131
 21
-2.165063509461022
 31
0.0
210
0.0
220
0.0
230
1.0
 40
0.5773502691896257
 41
3.926990816987
 42
5.497787143781893
  0
ELLIPSE
  5
363B
330
35B2
100
AcDbEntity
  8
0
100
AcDbEllipse
 10
52.85623189369437
 20
60.93105735173165
 30
0.0
 11
1.250000000000131
 21
-2.165063509461022
 31
0.0
210
0.0
220
0.0
230
1.0
 40
0.5773502691896257
 41
3.926990816986995
 42
5.497787143781893
  0
ELLIPSE
  5
363C
330
35B2
100
AcDbEntity
  8
0
100
AcDbEllipse
 10
52.85623189369438
 20
28.2711941146226
 30
0.0
 11
1.250000000000131
 21
-2.165063509461022
 31
0.0
210
0.0
220
0.0
230
1.0
 40
0.5773502691896257
 41
3.926990816987011
 42
5.497787143781879
  0
ELLIPSE
  5
363D
330
35B2
100
AcDbEntity
  8
0
100
AcDbEllipse
 10
51.088464940728
 20
27.25057338846293
 30
0.0
 11
-1.250000000000001
 21
2.165063509461097
 31
0.0
210
0.0
220
0.0
230
1.0
 40
0.5773502691896258
 41
0.0
 42
6.283185307179586
  0
ELLIPSE
  5
363E
330
35B2
100
AcDbEntity
  8
0
100
AcDbEllipse
 10
51.088464940728
 20
59.91043662557199
 30
0.0
 11
-1.250000000000001
 21
2.165063509461097
 31
0.0
210
0.0
220
0.0
230
1.0
 40
0.5773502691896258
 41
0.0
 42
6.283185307179586
  0
ELLIPSE
  5
363F
330
35B2
100
AcDbEntity
  8
0
100
AcDbEllipse
 10
61.69506665852622
 20
29.29181484078226
 30
0.0
 11
-1.250000000000001
 21
2.165063509461097
 31
0.0
210
0.0
220
0.0
230
1.0
 40
0.5773502691896258
 41
0.0
 42
6.283185307179586
  0
ELLIPSE
  5
3640
330
35B2
100
AcDbEntity
  8
0
100
AcDbEllipse
 10
72.30166837632443
 20
-1.326806944007477
 30
0.0
 11
-1.250000000000001
 21
2.165063509461097
 31
0.0
210
0.0
220
0.0
230
1.0
 40
0.5773502691896258
 41
6.228767565695399
 42
7.088144694375683
  0
ELLIPSE
  5
3641
330
35B2
100
AcDbEntity
  8
0
100
AcDbEllipse
 10
72.30166837632444
 20
47.66298791165609
 30
0.0
 11
1.250000000000001
 21
-2.165063509461096
 31
0.0
210
0.0
220
0.0
230
0.9999999999999998
 40
0.5773502691896259
 41
0.5575988266995358
 42
5.90930398984963
  0
ELLIPSE
  5
3642
330
35B2
100
AcDbEntity
  8
0
100
AcDbEllipse
 10
61.69506665852622
 20
45.62174645933677
 30
0.0
 11
-1.250000000000001
 21
2.165063509461097
 31
0.0
210
0.0
220
0.0
230
1.0
 40
0.5773502691896258
 41
0.0
 42
6.283185307179586
  0
ELLIPSE
  5
3643
330
35B2
100
AcDbEntity
  8
0
100
AcDbEllipse
 10
61.6950666585262
 20
12.96188322222773
 30
0.0
 11
-1.250000000000001
 21
2.165063509461097
 31
0.0
210
0.0
220
0.0
230
1.0
 40
0.5773502691896258
 41
0.0
 42
6.283185307179586
  0
ELLIPSE
  5
3644
330
35B2
100
AcDbEntity
  8
0
100
AcDbEllipse
 10
51.08846494072801
 20
43.58050500701746
 30
0.0
 11
-1.250000000000001
 21
2.165063509461097
 31
0.0
210
0.0
220
0.0
230
1.0
 40
0.5773502691896258
 41
0.0
 42
6.283185307179586
  0
ELLIPSE
  5
3645
330
35B2
100
AcDbEntity
  8
0
100
AcDbEllipse
 10
51.088464940728
 20
10.92064176990841
 30
0.0
 11
-1.250000000000001
 21
2.165063509461097
 31
0.0
210
0.0
220
0.0
230
1.0
 40
0.5773502691896258
 41
0.0
 42
6.283185307179586
  0
ELLIPSE
  5
3646
330
35B2
100
AcDbEntity
  8
0
100
AcDbEllipse
 10
51.088464940728
 20
-5.409289848646112
 30
0.0
 11
-1.250000000000001
 21
2.165063509461097
 31
0.0
210
0.0
220
0.0
230
1.0
 40
0.5773502691896258
 41
0.0
 42
6.283185307179586
  0
ELLIPSE
  5
3647
330
35B2
100
AcDbEntity
  8
0
100
AcDbEllipse
 10
51.08846494072801
 20
-21.73922146720063
 30
0.0
 11
-1.250000000000001
 21
2.165063509461097
 31
0.0
210
0.0
220
0.0
230
1.0
 40
0.5773502691896258
 41
0.0
 42
6.283185307179586
  0
ELLIPSE
  5
3648
330
35B2
100
AcDbEntity
  8
0
100
AcDbEllipse
 10
72.30166837632445
 20
16.22786954593866
 30
0.0
 11
-3.249999999999666
 21
5.629165124599045
 31
0.0
210
0.0
220
0.0
230
0.9999999999999998
 40
0.5773502691896259
 41
0.7853981633977316
 42
2.510654088676854
  0
LINE
  5
3649
330
35B2
100
AcDbEntity
  8
0
100
AcDbLine
 10
67.70547429861188
 20
18.88148343395376
 30
0.0
 11
67.70547429861188
 21
32.76192530972509
 31
0.0
  0
ELLIPSE
  5
364A
330
35B2
100
AcDbEntity
  8
0
100
AcDbEllipse
 10
72.30166837632445
 20
30.10831142170999
 30
0.0
 11
-3.250000000000003
 21
5.629165124598849
 31
0.0
210
0.0
220
0.0
230
1.0
 40
0.5773502691896259
 41
5.343327545297953
 42
7.068583470577033
  0
LINE
  5
364B
330
35B2
100
AcDbEntity
  8
0
100
AcDbLine
 10
45.07805730064235
 20
-11.32889006037212
 30
0.0
 11
45.07805730064235
 21
-25.20933193614337
 31
0.0
  0
LINE
  5
364C
330
35B2
100
AcDbEntity
  8
0
100
AcDbLine
 10
67.70547429861188
 20
18.88148343395376
 30
0.0
 11
69.47324125157824
 21
19.90210416011342
 31
0.0
  0
LINE
  5
364D
330
35B2
100
AcDbEntity
  8
0
100
AcDbLine
 10
67.70547429861188
 20
32.76192530972509
 30
0.0
 11
69.47324125157826
 21
33.78254603588475
 31
0.0
  0
ELLIPSE
  5
364E
330
35B2
100
AcDbEntity
  8
0
100
AcDbEllipse
 10
42.24963017589613
 20
58.88981589941232
 30
0.0
 11
2.250000000000238
 21
-3.89711431702984
 31
0.0
210
0.0
220
0.0
230
1.0
 40
0.5773502691896255
 41
3.545307340249879
 42
5.879470620518629
  0
ELLIPSE
  5
364F
330
35B2
100
AcDbEntity
  8
0
100
AcDbEllipse
 10
42.24963017589614
 20
42.55988428085779
 30
0.0
 11
1.250000000000131
 21
-2.165063509461022
 31
0.0
210
0.0
220
0.0
230
1.0
 40
0.5773502691896257
 41
3.926990816986984
 42
5.497787143781915
  0
ELLIPSE
  5
3650
330
35B2
100
AcDbEntity
  8
0
100
AcDbEllipse
 10
42.24963017589614
 20
26.22995266230328
 30
0.0
 11
2.250000000000238
 21
-3.89711431702984
 31
0.0
210
0.0
220
0.0
230
1.0
 40
0.5773502691896255
 41
3.54530734024988
 42
5.879470620518636
  0
ELLIPSE
  5
3651
330
35B2
100
AcDbEntity
  8
0
100
AcDbEllipse
 10
40.48186322292981
 20
25.20933193614364
 30
0.0
 11
-2.250000000000003
 21
3.897114317029974
 31
0.0
210
0.0
220
0.0
230
1.0
 40
0.577350269189626
 41
0.0
 42
6.283185307179586
  0
ELLIPSE
  5
3652
330
35B2
100
AcDbEntity
  8
0
100
AcDbEllipse
 10
40.4818632229298
 20
41.53926355469816
 30
0.0
 11
-1.250000000000001
 21
2.165063509461097
 31
0.0
210
0.0
220
0.0
230
1.0
 40
0.5773502691896258
 41
0.0
 42
6.283185307179586
  0
ELLIPSE
  5
3653
330
35B2
100
AcDbEntity
  8
0
100
AcDbEllipse
 10
40.48186322292979
 20
57.86919517325269
 30
0.0
 11
-2.250000000000003
 21
3.897114317029974
 31
0.0
210
0.0
220
0.0
230
1.0
 40
0.577350269189626
 41
0.0
 42
6.283185307179586
  0
ELLIPSE
  5
3654
330
35B2
100
AcDbEntity
  8
0
100
AcDbEllipse
 10
42.24963017589615
 20
-21.5350973219686
 30
0.0
 11
3.250000000000343
 21
-5.629165124598658
 31
0.0
210
0.0
220
0.0
230
1.0
 40
0.5773502691896257
 41
3.926990816986998
 42
6.007751782385855
  0
ELLIPSE
  5
3655
330
35B2
100
AcDbEntity
  8
0
100
AcDbEllipse
 10
42.24963017589614
 20
-7.654655446197353
 30
0.0
 11
-3.250000000000003
 21
5.629165124598848
 31
0.0
210
0.0
220
0.0
230
1.0
 40
0.5773502691896257
 41
0.2754335247933701
 42
0.7853981633974485
  0
LINE
  5
3656
330
35B2
100
AcDbEntity
  8
0
100
AcDbLine
 10
37.65343609818361
 20
-5.001041558182244
 30
0.0
 11
37.65343609818361
 21
-18.8814834339535
 31
0.0
  0
ELLIPSE
  5
3657
330
35B2
100
AcDbEntity
  8
0
100
AcDbEllipse
 10
10.42982502250149
 20
53.99083641384596
 30
0.0
 11
3.25000000000034
 21
-5.629165124598656
 31
0.0
210
0.0
220
0.0
230
1.0
 40
0.5773502691896258
 41
3.926990816986998
 42
6.007751782385858
  0
ELLIPSE
  5
3658
330
35B2
100
AcDbEntity
  8
0
100
AcDbEllipse
 10
10.42982502250148
 20
67.87127828961731
 30
0.0
 11
-3.250000000000003
 21
5.629165124598848
 31
0.0
210
0.0
220
0.0
230
1.0
 40
0.5773502691896258
 41
0.2754335247933699
 42
0.7853981633974471
  0
LINE
  5
3659
330
35B2
100
AcDbEntity
  8
0
100
AcDbLine
 10
5.833630944788943
 20
70.52489217763242
 30
0.0
 11
5.833630944788947
 21
56.64445030186108
 31
0.0
  0
ELLIPSE
  5
365A
330
35B2
100
AcDbEntity
  8
0
100
AcDbEllipse
 10
8.662058069535159
 20
52.97021568768632
 30
0.0
 11
3.250000000000003
 21
-5.629165124598849
 31
0.0
210
0.0
220
0.0
230
1.0
 40
0.5773502691896259
 41
3.92699081698724
 42
7.068583470577032
  0
LINE
  5
365B
330
35B2
100
AcDbEntity
  8
0
100
AcDbLine
 10
4.065863991822582
 20
55.62382957570143
 30
0.0
 11
4.065863991822573
 21
69.50427145147276
 31
0.0
  0
ELLIPSE
  5
365C
330
35B2
100
AcDbEntity
  8
0
100
AcDbEllipse
 10
8.662058069535149
 20
66.85065756345766
 30
0.0
 11
-3.250000000000003
 21
5.629165124598849
 31
0.0
210
0.0
220
0.0
230
1.0
 40
0.5773502691896259
 41
3.92699081698724
 42
7.068583470577032
  0
LINE
  5
365D
330
35B2
100
AcDbEntity
  8
0
100
AcDbLine
 10
13.2582521472477
 20
64.19704367544254
 30
0.0
 11
13.2582521472477
 21
50.31660179967119
 31
0.0
  0
ELLIPSE
  5
365E
330
35B2
100
AcDbEntity
  8
0
100
AcDbEllipse
 10
40.48186322292981
 20
-22.55571804812824
 30
0.0
 11
3.250000000000005
 21
-5.629165124598855
 31
0.0
210
0.0
220
0.0
230
0.9999999999999998
 40
0.5773502691896259
 41
3.92699081698724
 42
7.068583470577036
  0
LINE
  5
365F
330
35B2
100
AcDbEntity
  8
0
100
AcDbLine
 10
35.88566914521724
 20
-19.90210416011315
 30
0.0
 11
35.88566914521724
 21
-6.021662284341906
 31
0.0
  0
ELLIPSE
  5
3660
330
35B2
100
AcDbEntity
  8
0
100
AcDbEllipse
 10
40.48186322292981
 20
-8.675276172356994
 30
0.0
 11
-3.250000000000001
 21
5.629165124598848
 31
0.0
210
0.0
220
0.0
230
0.9999999999999998
 40
0.577350269189626
 41
3.926990816987236
 42
7.068583470577033
  0
LINE
  5
3661
330
35B2
100
AcDbEntity
  8
0
100
AcDbLine
 10
35.88566914521724
 20
-6.021662284341906
 30
0.0
 11
37.65343609818361
 21
-5.001041558182244
 31
0.0
  0
LINE
  5
3662
330
35B2
100
AcDbEntity
  8
0
100
AcDbLine
 10
35.88566914521724
 20
-19.90210416011315
 30
0.0
 11
37.65343609818361
 21
-18.8814834339535
 31
0.0
  0
LINE
  5
3663
330
35B2
100
AcDbEntity
  8
0
100
AcDbLine
 10
4.065863991822582
 20
55.62382957570143
 30
0.0
 11
5.833630944788947
 21
56.64445030186108
 31
0.0
  0
LINE
  5
3664
330
35B2
100
AcDbEntity
  8
0
100
AcDbLine
 10
4.065863991822573
 20
69.50427145147276
 30
0.0
 11
5.833630944788943
 21
70.52489217763242
 31
0.0
  0
ELLIPSE
  5
3665
330
35B2
100
AcDbEntity
  8
0
100
AcDbEllipse
 10
31.64302845809794
 20
-8.471152027125086
 30
0.0
 11
1.250000000000131
 21
-2.165063509461022
 31
0.0
210
0.0
220
0.0
230
1.0
 40
0.5773502691896257
 41
3.926990816986998
 42
5.497787143781896
  0
ELLIPSE
  5
3666
330
35B2
100
AcDbEntity
  8
0
100
AcDbEllipse
 10
10.4298250225015
 20
20.10622830534533
 30
0.0
 11
1.250000000000131
 21
-2.165063509461022
 31
0.0
210
0.0
220
0.0
230
1.0
 40
0.5773502691896257
 41
3.926990816986998
 42
5.497787143781895
  0
ELLIPSE
  5
3667
330
35B2
100
AcDbEntity
  8
0
100
AcDbEllipse
 10
31.64302845809795
 20
40.51864282853848
 30
0.0
 11
1.250000000000131
 21
-2.165063509461022
 31
0.0
210
0.0
220
0.0
230
1.0
 40
0.5773502691896257
 41
3.926990816986998
 42
5.497787143781881
  0
ELLIPSE
  5
3668
330
35B2
100
AcDbEntity
  8
0
100
AcDbEllipse
 10
31.64302845809793
 20
73.17850606564755
 30
0.0
 11
1.250000000000131
 21
-2.165063509461022
 31
0.0
210
0.0
220
0.0
230
1.0
 40
0.5773502691896257
 41
3.926990816986998
 42
5.497787143781896
  0
ELLIPSE
  5
3669
330
35B2
100
AcDbEntity
  8
0
100
AcDbEllipse
 10
21.03642674029972
 20
54.80733299477371
 30
0.0
 11
1.250000000000131
 21
-2.165063509461022
 31
0.0
210
0.0
220
0.0
230
1.0
 40
0.5773502691896257
 41
3.926990816986998
 42
5.497787143781896
  0
ELLIPSE
  5
366A
330
35B2
100
AcDbEntity
  8
0
100
AcDbEllipse
 10
10.42982502250151
 20
36.43615992389987
 30
0.0
 11
1.250000000000131
 21
-2.165063509461022
 31
0.0
210
0.0
220
0.0
230
1.0
 40
0.5773502691896257
 41
3.926990816986998
 42
5.497787143781881
  0
ELLIPSE
  5
366B
330
35B2
100
AcDbEntity
  8
0
100
AcDbEllipse
 10
-0.1767766952967165
 20
83.38471332724413
 30
0.0
 11
1.250000000000131
 21
-2.165063509461022
 31
0.0
210
0.0
220
0.0
230
1.0
 40
0.5773502691896257
 41
3.926990816987004
 42
5.497787143781899
  0
ELLIPSE
  5
366C
330
35B2
100
AcDbEntity
  8
0
100
AcDbEllipse
 10
-0.1767766952967076
 20
50.72485009013508
 30
0.0
 11
1.250000000000131
 21
-2.165063509461022
 31
0.0
210
0.0
220
0.0
230
1.0
 40
0.5773502691896257
 41
3.926990816986998
 42
5.497787143781881
  0
ELLIPSE
  5
366D
330
35B2
100
AcDbEntity
  8
0
100
AcDbEllipse
 10
-0.1767766952967076
 20
67.05478170868961
 30
0.0
 11
1.250000000000131
 21
-2.165063509461022
 31
0.0
210
0.0
220
0.0
230
1.0
 40
0.5773502691896257
 41
3.926990816986998
 42
5.497787143781895
  0
ELLIPSE
  5
366E
330
35B2
100
AcDbEntity
  8
0
100
AcDbEllipse
 10
10.42982502250149
 20
85.42595477956343
 30
0.0
 11
1.250000000000131
 21
-2.165063509461022
 31
0.0
210
0.0
220
0.0
230
1.0
 40
0.5773502691896257
 41
3.926990816987004
 42
5.497787143781899
  0
ELLIPSE
  5
366F
330
35B2
100
AcDbEntity
  8
0
100
AcDbEllipse
 10
21.03642674029972
 20
71.13726461332823
 30
0.0
 11
1.250000000000131
 21
-2.165063509461022
 31
0.0
210
0.0
220
0.0
230
1.0
 40
0.5773502691896257
 41
3.926990816986998
 42
5.497787143781896
  0
ELLIPSE
  5
3670
330
35B2
100
AcDbEntity
  8
0
100
AcDbEllipse
 10
21.03642674029974
 20
38.47740137621919
 30
0.0
 11
1.250000000000131
 21
-2.165063509461022
 31
0.0
210
0.0
220
0.0
230
1.0
 40
0.5773502691896257
 41
3.926990816987
 42
5.497787143781881
  0
ELLIPSE
  5
3671
330
35B2
100
AcDbEntity
  8
0
100
AcDbEllipse
 10
31.64302845809794
 20
56.84857444709302
 30
0.0
 11
1.250000000000131
 21
-2.165063509461022
 31
0.0
210
0.0
220
0.0
230
1.0
 40
0.5773502691896257
 41
3.926990816986998
 42
5.497787143781896
  0
ELLIPSE
  5
3672
330
35B2
100
AcDbEntity
  8
0
100
AcDbEllipse
 10
31.64302845809795
 20
24.18871120998397
 30
0.0
 11
1.250000000000131
 21
-2.165063509461022
 31
0.0
210
0.0
220
0.0
230
1.0
 40
0.5773502691896257
 41
3.926990816986998
 42
5.497787143781881
  0
ELLIPSE
  5
3673
330
35B2
100
AcDbEntity
  8
0
100
AcDbEllipse
 10
31.64302845809793
 20
7.858779591429438
 30
0.0
 11
1.250000000000131
 21
-2.165063509461022
 31
0.0
210
0.0
220
0.0
230
1.0
 40
0.5773502691896257
 41
3.926990816986998
 42
5.497787143781896
  0
ELLIPSE
  5
3674
330
35B2
100
AcDbEntity
  8
0
100
AcDbEllipse
 10
10.42982502250151
 20
3.776296686790807
 30
0.0
 11
1.250000000000131
 21
-2.165063509461022
 31
0.0
210
0.0
220
0.0
230
1.0
 40
0.5773502691896257
 41
3.926990816986998
 42
5.497787143781895
  0
ELLIPSE
  5
3675
330
35B2
100
AcDbEntity
  8
0
100
AcDbEllipse
 10
8.662058069535136
 20
2.755675960631149
 30
0.0
 11
1.250000000000001
 21
-2.165063509461097
 31
0.0
210
0.0
220
0.0
230
1.0
 40
0.5773502691896258
 41
0.0
 42
6.283185307179586
  0
ELLIPSE
  5
3676
330
35B2
100
AcDbEntity
  8
0
100
AcDbEllipse
 10
29.87526150513156
 20
6.838158865269781
 30
0.0
 11
1.250000000000001
 21
-2.165063509461097
 31
0.0
210
0.0
220
0.0
230
1.0
 40
0.5773502691896258
 41
0.0
 42
6.283185307179586
  0
ELLIPSE
  5
3677
330
35B2
100
AcDbEntity
  8
0
100
AcDbEllipse
 10
29.87526150513156
 20
23.16809048382431
 30
0.0
 11
1.250000000000001
 21
-2.165063509461097
 31
0.0
210
0.0
220
0.0
230
1.0
 40
0.5773502691896258
 41
0.0
 42
6.283185307179586
  0
ELLIPSE
  5
3678
330
35B2
100
AcDbEntity
  8
0
100
AcDbEllipse
 10
29.87526150513158
 20
55.82795372093336
 30
0.0
 11
1.250000000000001
 21
-2.165063509461097
 31
0.0
210
0.0
220
0.0
230
1.0
 40
0.5773502691896258
 41
0.0
 42
6.283185307179586
  0
ELLIPSE
  5
3679
330
35B2
100
AcDbEntity
  8
0
100
AcDbEllipse
 10
19.26865978733335
 20
37.45678065005951
 30
0.0
 11
1.250000000000001
 21
-2.165063509461097
 31
0.0
210
0.0
220
0.0
230
1.0
 40
0.5773502691896258
 41
0.0
 42
6.283185307179586
  0
ELLIPSE
  5
367A
330
35B2
100
AcDbEntity
  8
0
100
AcDbEllipse
 10
19.26865978733335
 20
70.11664388716856
 30
0.0
 11
1.250000000000001
 21
-2.165063509461097
 31
0.0
210
0.0
220
0.0
230
1.0
 40
0.5773502691896258
 41
0.0
 42
6.283185307179586
  0
ELLIPSE
  5
367B
330
35B2
100
AcDbEntity
  8
0
100
AcDbEllipse
 10
8.662058069535131
 20
84.40533405340378
 30
0.0
 11
1.250000000000001
 21
-2.165063509461097
 31
0.0
210
0.0
220
0.0
230
1.0
 40
0.5773502691896258
 41
0.0
 42
6.283185307179586
  0
ELLIPSE
  5
367C
330
35B2
100
AcDbEntity
  8
0
100
AcDbEllipse
 10
-1.944543648263072
 20
66.03416098252994
 30
0.0
 11
1.250000000000001
 21
-2.165063509461097
 31
0.0
210
0.0
220
0.0
230
1.0
 40
0.5773502691896258
 41
0.0
 42
6.283185307179586
  0
ELLIPSE
  5
367D
330
35B2
100
AcDbEntity
  8
0
100
AcDbEllipse
 10
-1.944543648263099
 20
49.7042293639754
 30
0.0
 11
1.250000000000001
 21
-2.165063509461097
 31
0.0
210
0.0
220
0.0
230
1.0
 40
0.5773502691896258
 41
0.0
 42
6.283185307179586
  0
ELLIPSE
  5
367E
330
35B2
100
AcDbEntity
  8
0
100
AcDbEllipse
 10
-1.944543648263081
 20
82.36409260108445
 30
0.0
 11
1.250000000000001
 21
-2.165063509461097
 31
0.0
210
0.0
220
0.0
230
1.0
 40
0.5773502691896258
 41
0.0
 42
6.283185307179586
  0
ELLIPSE
  5
367F
330
35B2
100
AcDbEntity
  8
0
100
AcDbEllipse
 10
8.662058069535124
 20
35.41553919774019
 30
0.0
 11
1.250000000000001
 21
-2.165063509461097
 31
0.0
210
0.0
220
0.0
230
1.0
 40
0.5773502691896258
 41
0.0
 42
6.283185307179586
  0
ELLIPSE
  5
3680
330
35B2
100
AcDbEntity
  8
0
100
AcDbEllipse
 10
19.26865978733335
 20
53.78671226861404
 30
0.0
 11
1.250000000000001
 21
-2.165063509461097
 31
0.0
210
0.0
220
0.0
230
1.0
 40
0.5773502691896258
 41
0.0
 42
6.283185307179586
  0
ELLIPSE
  5
3681
330
35B2
100
AcDbEntity
  8
0
100
AcDbEllipse
 10
29.87526150513156
 20
72.15788533948788
 30
0.0
 11
1.250000000000001
 21
-2.165063509461097
 31
0.0
210
0.0
220
0.0
230
1.0
 40
0.5773502691896258
 41
0.0
 42
6.283185307179586
  0
ELLIPSE
  5
3682
330
35B2
100
AcDbEntity
  8
0
100
AcDbEllipse
 10
29.87526150513156
 20
39.49802210237883
 30
0.0
 11
1.250000000000001
 21
-2.165063509461097
 31
0.0
210
0.0
220
0.0
230
1.0
 40
0.5773502691896258
 41
0.0
 42
6.283185307179586
  0
ELLIPSE
  5
3683
330
35B2
100
AcDbEntity
  8
0
100
AcDbEllipse
 10
8.662058069535131
 20
19.08560757918566
 30
0.0
 11
1.250000000000001
 21
-2.165063509461097
 31
0.0
210
0.0
220
0.0
230
1.0
 40
0.5773502691896258
 41
0.0
 42
6.283185307179586
  0
ELLIPSE
  5
3684
330
35B2
100
AcDbEntity
  8
0
100
AcDbEllipse
 10
29.87526150513158
 20
-9.491772753284738
 30
0.0
 11
1.250000000000001
 21
-2.165063509461097
 31
0.0
210
0.0
220
0.0
230
1.0
 40
0.5773502691896258
 41
0.0
 42
6.283185307179586
  0
LINE
  5
3685
330
35B2
100
AcDbEntity
  8
0
100
AcDbLine
 10
-13.25825214724783
 20
-3.635042778290169
 30
0.0
 11
-13.25825214724783
 21
-7.042283010501568
 31
0.0
  0
LINE
  5
3686
330
35B2
100
AcDbEntity
  8
0
100
AcDbLine
 10
-9.369164850721833
 20
-3.430918633058244
 30
0.0
 11
-9.015611460128551
 21
-3.635042778290173
 31
0.0
  0
LINE
  5
3687
330
35B2
100
AcDbEntity
  8
0
100
AcDbLine
 10
-9.015611460128551
 20
-3.635042778290173
 30
0.0
 11
-9.015611460128551
 21
-4.592793267718398
 31
0.0
  0
LINE
  5
3688
330
35B2
100
AcDbEntity
  8
0
100
AcDbLine
 10
-13.25825214724783
 20
-3.635042778290169
 30
0.0
 11
-12.90469875665455
 21
-3.430918633058239
 31
0.0
  0
LINE
  5
3689
330
35B2
100
AcDbEntity
  8
0
100
AcDbLine
 10
-91.7471048589546
 20
-54.39908470430973
 30
0.0
 11
-91.7471048589546
 21
-56.44032615662904
 31
0.0
  0
LINE
  5
368A
330
35B2
100
AcDbEntity
  8
0
100
AcDbLine
 10
-10.78337841309491
 20
-7.654655446197367
 30
0.0
 11
-91.7471048589546
 21
-54.39908470430973
 31
0.0
  0
LINE
  5
368B
330
35B2
100
AcDbEntity
  8
0
100
AcDbLine
 10
-1.944543648263081
 20
36.06873646248236
 30
0.0
 11
68.48944051253609
 21
-4.596343252852861
 31
0.0
  0
ELLIPSE
  5
368C
330
35B2
100
AcDbEntity
  8
0
100
AcDbEllipse
 10
-1.944543648263055
 20
33.37429774542088
 30
0.0
 11
-1.650000000000006
 21
2.857883832488657
 31
0.0
210
0.0
220
0.0
230
1.0
 40
0.5773502691896258
 41
5.497787143782137
 42
7.19448877132361
  0
ELLIPSE
  5
368D
330
35B2
100
AcDbEntity
  8
0
100
AcDbEllipse
 10
-1.94454364826309
 20
33.37429774542088
 30
0.0
 11
-1.249999999999988
 21
-2.165063509461103
 31
0.0
210
0.0
220
0.0
230
1.0
 40
0.5773502691896255
 41
4.531060632894527
 42
6.283185307179552
  0
ELLIPSE
  5
368E
330
35B2
100
AcDbEntity
  8
0
100
AcDbEllipse
 10
-2.948629535740643
 20
32.79458848799618
 30
0.0
 11
-1.028788493950154
 21
1.781913941763929
 31
0.0
210
0.0
220
0.0
230
1.0
 40
0.5773502691896257
 41
5.497787143782141
 42
6.792975722343547
  0
LINE
  5
368F
330
35B2
100
AcDbEntity
  8
0
100
AcDbLine
 10
-2.097279861360821
 20
35.64455325361215
 30
0.0
 11
-2.948629535740643
 21
34.47459306361236
 31
0.0
  0
ELLIPSE
  5
3690
330
35B2
100
AcDbEntity
  8
0
100
AcDbEllipse
 10
-2.097279861360821
 20
33.28611545167388
 30
0.0
 11
-1.444242301209969
 21
2.501501044135858
 31
0.0
210
0.0
220
0.0
230
1.0
 40
0.5773502691896258
 41
5.49778714378214
 42
6.792975722343527
  0
ELLIPSE
  5
3691
330
35B2
100
AcDbEntity
  8
0
100
AcDbEllipse
 10
-2.298097038856328
 20
35.86461231725043
 30
0.0
 11
-0.2500000000000257
 21
-0.4330127018922047
 31
0.0
210
0.0
220
0.0
230
0.9999999999999998
 40
0.5773502691896257
 41
1.389467979304859
 42
2.356194490192589
  0
LINE
  5
3692
330
35B2
100
AcDbEntity
  8
0
100
AcDbLine
 10
67.67091371930331
 20
-6.297619244735659
 30
0.0
 11
-2.948629535740643
 21
34.47459306361236
 31
0.0
  0
LINE
  5
3693
330
35B2
100
AcDbEntity
  8
0
100
AcDbLine
 10
68.29651810327991
 20
-4.997324950553299
 30
0.0
 11
-2.09727986136083
 21
35.64455325361215
 31
0.0
  0
ARC
  5
3694
330
35B2
100
AcDbEntity
  8
0
100
AcDbCircle
 10
-1.94454364826309
 20
33.37429774542085
 30
0.0
 40
2.500000000000018
100
AcDbArc
 50
164.0791249064035
 51
240.0
  0
LINE
  5
3695
330
35B2
100
AcDbEntity
  8
0
100
AcDbLine
 10
-4.348647227412962
 20
34.06007174661866
 30
0.0
 11
-4.062664179562069
 21
35.06263653868376
 31
0.0
  0
LINE
  5
3696
330
35B2
100
AcDbEntity
  8
0
100
AcDbLine
 10
66.38793947865974
 20
-8.964231128251718
 30
0.0
 11
-3.194543648263099
 21
31.20923423595976
 31
0.0
  0
ELLIPSE
  5
3697
330
35B2
100
AcDbEntity
  8
0
100
AcDbEllipse
 10
82.90827009412266
 20
52.15371910675859
 30
0.0
 11
1.649999999999832
 21
-2.857883832488746
 31
0.0
210
0.0
220
0.0
230
1.0
 40
0.5773502691896257
 41
1.354847020185047
 42
2.356194490192576
  0
ELLIPSE
  5
3698
330
35B2
100
AcDbEntity
  8
0
100
AcDbEllipse
 10
-1.944543648263081
 20
101.1435139624221
 30
0.0
 11
-1.650000000000006
 21
2.857883832488657
 31
0.0
210
0.0
220
0.0
230
1.0
 40
0.5773502691896258
 41
5.49778714378214
 42
7.194488771323624
  0
LINE
  5
3699
330
35B2
100
AcDbEntity
  8
0
100
AcDbLine
 10
-1.94454364826309
 20
103.8379526794836
 30
0.0
 11
82.90827009412266
 21
54.84815782382007
 31
0.0
  0
ELLIPSE
  5
369A
330
35B2
100
AcDbEntity
  8
0
100
AcDbEllipse
 10
82.90827009412263
 20
52.15371910675855
 30
0.0
 11
-1.249999999999999
 21
-2.165063509461097
 31
0.0
210
0.0
220
0.0
230
1.0
 40
0.5773502691896257
 41
4.531060632894533
 42
5.909303989849607
  0
ELLIPSE
  5
369B
330
35B2
100
AcDbEntity
  8
0
100
AcDbEllipse
 10
81.90418420664506
 20
51.57400984933392
 30
0.0
 11
-1.028788493950153
 21
1.781913941763929
 31
0.0
210
0.0
220
0.0
230
1.0
 40
0.5773502691896257
 41
4.361577540966138
 42
5.497787143782137
  0
ELLIPSE
  5
369C
330
35B2
100
AcDbEntity
  8
0
100
AcDbEllipse
 10
82.75553388102489
 20
52.06553681301162
 30
0.0
 11
-1.444242301209971
 21
2.501501044135859
 31
0.0
210
0.0
220
0.0
230
1.0
 40
0.5773502691896257
 41
4.465073516151525
 42
5.497787143782128
  0
LINE
  5
369D
330
35B2
100
AcDbEntity
  8
0
100
AcDbLine
 10
81.90418420664506
 20
53.25401442495007
 30
0.0
 11
82.75553388102492
 21
54.42397461494985
 31
0.0
  0
ELLIPSE
  5
369E
330
35B2
100
AcDbEntity
  8
0
100
AcDbEllipse
 10
82.55471670352939
 20
54.64403367858814
 30
0.0
 11
0.25
 21
0.4330127018922198
 31
0.0
210
0.0
220
0.0
230
1.0
 40
0.5773502691896254
 41
4.531060632894526
 42
5.497787143782155
  0
ELLIPSE
  5
369F
330
35B2
100
AcDbEntity
  8
0
100
AcDbEllipse
 10
-1.944543648263117
 20
101.1435139624221
 30
0.0
 11
-1.249999999999988
 21
-2.165063509461103
 31
0.0
210
0.0
220
0.0
230
1.0
 40
0.5773502691896255
 41
4.531060632894525
 42
6.28318530717955
  0
ELLIPSE
  5
36A0
330
35B2
100
AcDbEntity
  8
0
100
AcDbEllipse
 10
-2.948629535740669
 20
100.5638047049974
 30
0.0
 11
-1.028788493950154
 21
1.781913941763929
 31
0.0
210
0.0
220
0.0
230
1.0
 40
0.5773502691896257
 41
5.497787143782141
 42
6.792975722343538
  0
LINE
  5
36A1
330
35B2
100
AcDbEntity
  8
0
100
AcDbLine
 10
-2.097279861360847
 20
103.4137694706134
 30
0.0
 11
-2.948629535740669
 21
102.2438092806136
 31
0.0
  0
ELLIPSE
  5
36A2
330
35B2
100
AcDbEntity
  8
0
100
AcDbEllipse
 10
-2.097279861360847
 20
101.0553316686751
 30
0.0
 11
-1.444242301209969
 21
2.501501044135858
 31
0.0
210
0.0
220
0.0
230
1.0
 40
0.5773502691896258
 41
5.49778714378214
 42
6.792975722343533
  0
ELLIPSE
  5
36A3
330
35B2
100
AcDbEntity
  8
0
100
AcDbEllipse
 10
-2.298097038856354
 20
103.6338285342516
 30
0.0
 11
-0.2500000000000257
 21
-0.4330127018922047
 31
0.0
210
0.0
220
0.0
230
0.9999999999999998
 40
0.5773502691896257
 41
1.389467979304864
 42
2.356194490192555
  0
LINE
  5
36A4
330
35B2
100
AcDbEntity
  8
0
100
AcDbLine
 10
81.90418420664506
 20
53.25401442495007
 30
0.0
 11
-2.948629535740678
 21
102.2438092806136
 31
0.0
  0
LINE
  5
36A5
330
35B2
100
AcDbEntity
  8
0
100
AcDbLine
 10
82.75553388102492
 20
54.42397461494985
 30
0.0
 11
-2.097279861360838
 21
103.4137694706134
 31
0.0
  0
ARC
  5
36A6
330
35B2
100
AcDbEntity
  8
0
100
AcDbCircle
 10
-1.944543648263117
 20
101.1435139624221
 30
0.0
 40
2.500000000000018
100
AcDbArc
 50
164.0791249064033
 51
240.0000000000002
  0
LINE
  5
36A7
330
35B2
100
AcDbEntity
  8
0
100
AcDbLine
 10
-4.348647227412998
 20
101.8292879636199
 30
0.0
 11
-4.062664179562096
 21
102.831852755685
 31
0.0
  0
LINE
  5
36A8
330
35B2
100
AcDbEntity
  8
0
100
AcDbLine
 10
81.11537687530917
 20
50.30209514332064
 30
0.0
 11
-3.194543648263117
 21
98.97845045296101
 31
0.0
  0
ELLIPSE
  5
36A9
330
35B2
100
AcDbEntity
  8
0
100
AcDbEllipse
 10
-43.31029034767609
 20
-42.76400842608961
 30
0.0
 11
-6.500000000000014
 21
0.0000000000003866
 31
0.0
210
0.0
220
0.0
230
1.0
 40
0.5773502691896259
 41
5.497787143782379
 42
8.639379797372171
  0
ELLIPSE
  5
36AA
330
35B2
100
AcDbEntity
  8
0
100
AcDbEllipse
 10
-43.31029034767609
 20
-44.80524987840893
 30
0.0
 11
-6.500000000000014
 21
-0.0000000000000017
 31
0.0
210
0.0
220
0.0
230
1.0
 40
0.577350269189626
 41
5.497787143782137
 42
6.007751782386211
  0
LINE
  5
36AB
330
35B2
100
AcDbEntity
  8
0
100
AcDbLine
 10
-47.90648442538866
 20
-40.11039453807451
 30
0.0
 11
-47.90648442538866
 21
-42.15163599039382
 31
0.0
  0
LINE
  5
36AC
330
35B2
100
AcDbEntity
  8
0
100
AcDbLine
 10
-26.69328098979224
 20
-38.47740137621904
 30
0.0
 11
-38.71409626996356
 21
-45.41762231410472
 31
0.0
  0
ELLIPSE
  5
36AD
330
35B2
100
AcDbEntity
  8
0
100
AcDbEllipse
 10
-31.28947506750479
 20
-35.82378748820394
 30
0.0
 11
6.499999999999989
 21
-0.0000000000003869
 31
0.0
210
0.0
220
0.0
230
1.0
 40
0.5773502691896258
 41
5.497787143782379
 42
8.639379797372173
  0
LINE
  5
36AE
330
35B2
100
AcDbEntity
  8
0
100
AcDbLine
 10
-35.88566914521734
 20
-33.17017360018884
 30
0.0
 11
-35.88566914521734
 21
-35.21141505250815
 31
0.0
  0
ELLIPSE
  5
36AF
330
35B2
100
AcDbEntity
  8
0
100
AcDbEllipse
 10
-31.28947506750479
 20
-37.86502894052325
 30
0.0
 11
6.499999999999989
 21
0.0000000000000011
 31
0.0
210
0.0
220
0.0
230
1.0
 40
0.577350269189626
 41
0.275433524793377
 42
2.356194490192345
  0
LINE
  5
36B0
330
35B2
100
AcDbEntity
  8
0
100
AcDbLine
 10
-47.90648442538866
 20
-40.11039453807451
 30
0.0
 11
-35.88566914521734
 21
-33.17017360018884
 31
0.0
  0
LINE
  5
36B1
330
35B2
100
AcDbEntity
  8
0
100
AcDbLine
 10
-35.88566914521734
 20
-35.21141505250815
 30
0.0
 11
-47.90648442538866
 21
-42.15163599039382
 31
0.0
  0
ELLIPSE
  5
36B2
330
35B2
100
AcDbEntity
  8
0
100
AcDbEllipse
 10
-11.84403858487474
 20
-26.63820095276701
 30
0.0
 11
7.000000000000001
 21
0.0000000000000008
 31
0.0
210
0.0
220
0.0
230
1.0
 40
0.5773502691896261
 41
0.2553025216024088
 42
2.886290131987384
  0
ELLIPSE
  5
36B3
330
35B2
100
AcDbEntity
  8
0
100
AcDbEllipse
 10
-11.84403858487474
 20
-24.5969595004477
 30
0.0
 11
7.000000000000001
 21
-0.0000000000004177
 31
0.0
210
0.0
220
0.0
230
1.0
 40
0.5773502691896258
 41
0.0
 42
6.283185307179586
  0
ELLIPSE
  5
36B4
330
35B2
100
AcDbEntity
  8
0
100
AcDbEllipse
 10
-62.75572683030614
 20
-56.03207786616518
 30
0.0
 11
7.000000000000001
 21
0.000000000000001
 31
0.0
210
0.0
220
0.0
230
1.0
 40
0.5773502691896261
 41
0.2553025216024083
 42
2.886290131987383
  0
ELLIPSE
  5
36B5
330
35B2
100
AcDbEntity
  8
0
100
AcDbEllipse
 10
-62.75572683030614
 20
-53.99083641384586
 30
0.0
 11
7.000000000000001
 21
-0.0000000000004177
 31
0.0
210
0.0
220
0.0
230
1.0
 40
0.5773502691896258
 41
0.0
 42
6.283185307179586
  0
ENDBLK
  5
35B4
330
35B2
100
AcDbEntity
  8
0
100
AcDbBlockEnd
  0
ENDSEC
  0
SECTION
  2
ENTITIES
  0
INSERT
  5
36B6
330
1F
100
AcDbEntity
  8
0
100
AcDbBlockReference
  2
ACW155-Front
 10
0.0
 20
0.0
 30
0.0
  0
INSERT
  5
36B7
330
1F
100
AcDbEntity
  8
0
100
AcDbBlockReference
  2
ACW155-Left
 10
134.2453149775383
 20
0.0
 30
0.0
  0
INSERT
  5
36B8
330
1F
100
AcDbEntity
  8
0
100
AcDbBlockReference
  2
ACW155-Right
 10
-132.2459510301867
 20
0.0
 30
0.0
  0
INSERT
  5
36B9
330
1F
100
AcDbEntity
  8
0
100
AcDbBlockReference
  2
ACW155-Top
 10
0.0
 20
-57.74563300386247
 30
0.0
  0
INSERT
  5
36BA
330
1F
100
AcDbEntity
  8
0
100
AcDbBlockReference
  2
ACW155-Bottom
 10
0.0
 20
212.2456330038625
 30
0.0
  0
INSERT
  5
36BB
330
1F
100
AcDbEntity
  8
0
100
AcDbBlockReference
  2
ACW155-ISO
 10
218.4858741291565
 20
-163.4442106032139
 30
0.0
  0
MTEXT
  5
36BC
330
1F
100
AcDbEntity
  8
0
100
AcDbMText
 10
0.0
 20
-212.2
 30
0.0
 40
15.45
 41
0.0
 71
     5
 72
     5
  1
ACW155
 73
     1
 44
1.0
1001
ACAD
1000
MTEXTBEGIN
1070
    73
1070
     1
1070
    44
1040
1.0
1070
    74
1070
     0
1000
MTEXTEND
  0
ENDSEC
  0
SECTION
  2
OBJECTS
  0
DICTIONARY
  5
C
330
0
100
AcDbDictionary
281
     1
  3
ACAD_CIP_PREVIOUS_PRODUCT_INFO
350
216
  3
ACAD_COLOR
350
6B
  3
ACAD_DETAILVIEWSTYLE
350
21B
  3
ACAD_GROUP
350
D
  3
ACAD_LAYOUT
350
1A
  3
ACAD_MATERIAL
350
6A
  3
ACAD_MLEADERSTYLE
350
12D
  3
ACAD_MLINESTYLE
350
17
  3
ACAD_PLOTSETTINGS
350
19
  3
ACAD_PLOTSTYLENAME
350
E
  3
ACAD_SCALELIST
350
10C
  3
ACAD_SECTIONVIEWSTYLE
350
219
  3
ACAD_TABLESTYLE
350
7E
  3
ACAD_VISUALSTYLE
350
EF
  3
ACDB_RECOMPOSE_DATA
350
37BD
  3
AcDbVariableDictionary
350
5E
  3
DWGPROPS
350
37BE
  0
DICTIONARY
  5
370D
330
8
100
AcDbDictionary
280
     1
281
     1
  0
DICTIONARY
  5
1FF
330
2
100
AcDbDictionary
280
     1
281
     1
  3
ACAD_LAYERSTATES
360
200
  0
DICTIONARY
  5
13C
330
10
100
AcDbDictionary
280
     1
281
     1
  0
DICTIONARY
  5
1CE
330
1F
100
AcDbDictionary
280
     1
281
     1
  3
ACAD_LAYOUTSELFREF
360
3715
  0
DICTIONARY
  5
36C0
330
D2
100
AcDbDictionary
280
     1
281
     1
  3
ACAD_LAYOUTSELFREF
360
371E
  0
DICTIONARY
  5
36C2
330
D6
100
AcDbDictionary
280
     1
281
     1
  3
ACAD_LAYOUTSELFREF
360
3721
  0
XRECORD
  5
216
102
{ACAD_REACTORS
330
C
102
}
330
C
100
AcDbXrecord
280
     1
300
ACD
300
2021
300

  0
DICTIONARY
  5
6B
102
{ACAD_REACTORS
330
C
102
}
330
C
100
AcDbDictionary
281
     1
  0
DICTIONARY
  5
21B
102
{ACAD_REACTORS
330
C
102
}
330
C
100
AcDbDictionary
281
     1
  3
Metric50
350
21C
  0
DICTIONARY
  5
D
102
{ACAD_REACTORS
330
C
102
}
330
C
100
AcDbDictionary
281
     1
  0
DICTIONARY
  5
1A
102
{ACAD_REACTORS
330
C
102
}
330
C
100
AcDbDictionary
281
     1
  3
Layout1
350
D3
  3
Layout2
350
D7
  3
Model
350
22
  0
DICTIONARY
  5
6A
102
{ACAD_REACTORS
330
C
102
}
330
C
100
AcDbDictionary
281
     1
  3
ByBlock
350
ED
  3
ByLayer
350
EC
  3
Global
350
EE
  0
DICTIONARY
  5
12D
102
{ACAD_REACTORS
330
C
102
}
330
C
100
AcDbDictionary
281
     1
  3
Standard
350
12E
  0
DICTIONARY
  5
17
102
{ACAD_REACTORS
330
C
102
}
330
C
100
AcDbDictionary
281
     1
  3
Standard
350
18
  0
DICTIONARY
  5
19
102
{ACAD_REACTORS
330
C
102
}
330
C
100
AcDbDictionary
281
     1
  0
ACDBDICTIONARYWDFLT
  5
E
102
{ACAD_REACTORS
330
C
102
}
330
C
100
AcDbDictionary
281
     1
  3
Normal
350
F
100
AcDbDictionaryWithDefault
340
F
  0
DICTIONARY
  5
10C
102
{ACAD_REACTORS
330
C
102
}
330
C
100
AcDbDictionary
281
     1
  3
A0
350
10D
  3
A1
350
1BE
  3
A2
350
1BF
  3
A3
350
1C0
  3
A4
350
1C1
  3
A5
350
1C2
  3
A6
350
1C3
  3
A7
350
1C4
  3
A8
350
1C5
  3
A9
350
1C6
  3
B0
350
1C7
  3
B1
350
1C8
  3
B2
350
1C9
  3
B3
350
1CA
  3
B4
350
1CB
  3
B5
350
1CC
  3
B6
350
1CD
  0
DICTIONARY
  5
219
102
{ACAD_REACTORS
330
C
102
}
330
C
100
AcDbDictionary
281
     1
  3
Metric50
350
21A
  0
DICTIONARY
  5
7E
102
{ACAD_REACTORS
330
C
102
}
330
C
100
AcDbDictionary
281
     1
  3
Standard
350
7F
  0
DICTIONARY
  5
EF
102
{ACAD_REACTORS
330
C
102
}
330
C
100
AcDbDictionary
281
     1
  3
2dWireframe
350
F5
  3
Basic
350
F4
  3
Brighten
350
FB
  3
ColorChange
350
FF
  3
Conceptual
350
F8
  3
Dim
350
FA
  3
EdgeColorOff
350
1E6
  3
Facepattern
350
FE
  3
Flat
350
F0
  3
FlatWithEdges
350
F1
  3
Gouraud
350
F2
  3
GouraudWithEdges
350
F3
  3
Hidden
350
F7
  3
JitterOff
350
1E4
  3
Linepattern
350
FD
  3
OverhangOff
350
1E5
  3
Realistic
350
F9
  3
Shaded
350
1F3
  3
Shaded with edges
350
1F2
  3
Shades of Gray
350
1EF
  3
Sketchy
350
1F0
  3
Thicken
350
FC
  3
Wireframe
350
F6
  3
X-Ray
350
1F1
  0
XRECORD
  5
37BD
102
{ACAD_REACTORS
330
C
102
}
330
C
100
AcDbXrecord
280
     1
 90
        1
330
7F
  0
DICTIONARY
  5
5E
102
{ACAD_REACTORS
330
C
102
}
330
C
100
AcDbDictionary
281
     1
  3
CANNOSCALE
350
146
  3
CENTEREXE
350
259
  3
CENTERLTYPEFILE
350
25A
  3
CMLEADERSTYLE
350
145
  3
CTABLESTYLE
350
84
  3
CVIEWDETAILSTYLE
350
227
  3
CVIEWSECTIONSTYLE
350
228
  3
DIMASSOC
350
5F
  3
HIDETEXT
350
63
  3
INDEXCTL
350
376A
  3
LAYEREVAL
350
1AE
  3
LAYERNOTIFY
350
1AF
  3
LIGHTINGUNITS
350
3768
  3
MSLTSCALE
350
3767
  3
PSOLHEIGHT
350
37BA
  3
PSOLWIDTH
350
37B9
  3
SORTENTS
350
3769
  3
XCLIPFRAME
350
37BB
  0
XRECORD
  5
37BE
102
{ACAD_REACTORS
330
C
102
}
330
C
100
AcDbXrecord
280
     1
  1
DWGPROPS COOKIE
  2

  3

  4

  6

  7

  8
tronnguyen
  9

300
=
301
=
302
=
303
=
304
=
305
=
306
=
307
=
308
=
309
=
 40
0.0035648148148148
 41
2460367.705740741
 42
2460367.71181713
  1

 90
        0
  0
DICTIONARY
  5
200
102
{ACAD_REACTORS
330
1FF
102
}
330
1FF
100
AcDbDictionary
281
     1
  0
XRECORD
  5
3715
102
{ACAD_REACTORS
330
1CE
102
}
330
1CE
100
AcDbXrecord
280
     1
340
1F
  0
XRECORD
  5
371E
102
{ACAD_REACTORS
330
36C0
102
}
330
36C0
100
AcDbXrecord
280
     1
340
D2
  0
XRECORD
  5
3721
102
{ACAD_REACTORS
330
36C2
102
}
330
36C2
100
AcDbXrecord
280
     1
340
D6
  0
ACDBDETAILVIEWSTYLE
  5
21C
102
{ACAD_XDICTIONARY
360
37FD
102
}
102
{ACAD_REACTORS
330
21B
102
}
330
21B
100
AcDbModelDocViewStyle
 70
     0
  3
Metric50
290
     0
100
AcDbDetailViewStyle
 70
     0
 71
     0
 90
        3
 71
     1
340
11
 40
5.0
340
0
 40
5.0
300

 40
0.0
280
     1
 71
     2
340
16
 90
       25
 71
     3
340
11
 40
5.0
 90
        0
 40
15.0
 90
        1
300
%<\AcVar ViewDetailId>% (%<\AcVar ViewScale \f "%sn">%)
 71
     4
340
16
 90
       25
340
16
 90
       25
280
     0
  0
LAYOUT
  5
D3
102
{ACAD_XDICTIONARY
360
37C2
102
}
102
{ACAD_REACTORS
330
1A
102
}
330
1A
100
AcDbPlotSettings
  1

  2
C:\Documents and Settings\basas\Application Data\Autodesk\AutoCAD 2005\R16.1\enu\plotters\Default Windows System Printer.pc3
  4

  6

 40
0.0
 41
0.0
 42
0.0
 43
0.0
 44
0.0
 45
0.0
 46
0.0
 47
0.0
 48
0.0
 49
0.0
140
0.0
141
0.0
142
1.0
143
1.0
 70
   688
 72
     0
 73
     0
 74
     5
  7

 75
    16
147
1.0
148
0.0
149
0.0
100
AcDbLayout
  1
Layout1
 70
     1
 71
     1
 10
0.0
 20
0.0
 11
12.0
 21
9.0
 12
0.0
 22
0.0
 32
0.0
 14
0.0
 24
0.0
 34
0.0
 15
0.0
 25
0.0
 35
0.0
146
0.0
 13
0.0
 23
0.0
 33
0.0
 16
1.0
 26
0.0
 36
0.0
 17
0.0
 27
1.0
 37
0.0
 76
     0
330
D2
  0
LAYOUT
  5
D7
102
{ACAD_XDICTIONARY
360
37C4
102
}
102
{ACAD_REACTORS
330
1A
102
}
330
1A
100
AcDbPlotSettings
  1

  2
C:\Documents and Settings\basas\Application Data\Autodesk\AutoCAD 2005\R16.1\enu\plotters\Default Windows System Printer.pc3
  4

  6

 40
0.0
 41
0.0
 42
0.0
 43
0.0
 44
0.0
 45
0.0
 46
0.0
 47
0.0
 48
0.0
 49
0.0
140
0.0
141
0.0
142
1.0
143
1.0
 70
   688
 72
     0
 73
     0
 74
     5
  7

 75
    16
147
1.0
148
0.0
149
0.0
100
AcDbLayout
  1
Layout2
 70
     1
 71
     2
 10
0.0
 20
0.0
 11
12.0
 21
9.0
 12
0.0
 22
0.0
 32
0.0
 14
0.0
 24
0.0
 34
0.0
 15
0.0
 25
0.0
 35
0.0
146
0.0
 13
0.0
 23
0.0
 33
0.0
 16
1.0
 26
0.0
 36
0.0
 17
0.0
 27
1.0
 37
0.0
 76
     0
330
D6
  0
LAYOUT
  5
22
102
{ACAD_XDICTIONARY
360
37BF
102
}
102
{ACAD_REACTORS
330
1A
102
}
330
1A
100
AcDbPlotSettings
  1

  2
none_device
  4
ISO_A4_(210.00_x_297.00_MM)
  6

 40
7.5
 41
20.0
 42
7.5
 43
20.0
 44
210.0
 45
297.0
 46
11.54999923706054
 47
-13.65000009536743
 48
0.0
 49
0.0
140
0.0
141
0.0
142
1.0
143
8.704084754739808
 70
 11952
 72
     1
 73
     0
 74
     0
  7

 75
     0
147
0.1148885871608098
148
0.0
149
0.0
100
AcDbLayout
  1
Model
 70
     1
 71
     0
 10
0.0
 20
0.0
 11
12.0
 21
9.0
 12
0.0
 22
0.0
 32
0.0
 14
0.0
 24
0.0
 34
0.0
 15
0.0
 25
0.0
 35
0.0
146
0.0
 13
0.0
 23
0.0
 33
0.0
 16
1.0
 26
0.0
 36
0.0
 17
0.0
 27
1.0
 37
0.0
 76
     0
330
1F
331
EA
1001
ACAD_PSEXT
1000
None
1000
None
1000
Not applicable
1000
The layout will not be plotted unless a new plotter configuration name is selected.
1070
     0
  0
MATERIAL
  5
ED
102
{ACAD_XDICTIONARY
360
1F9
102
}
102
{ACAD_REACTORS
330
6A
102
}
330
6A
100
AcDbMaterial
  1
ByBlock
  0
MATERIAL
  5
EC
102
{ACAD_XDICTIONARY
360
1F7
102
}
102
{ACAD_REACTORS
330
6A
102
}
330
6A
100
AcDbMaterial
  1
ByLayer
  0
MATERIAL
  5
EE
102
{ACAD_XDICTIONARY
360
173
102
}
102
{ACAD_REACTORS
330
6A
102
}
330
6A
100
AcDbMaterial
  1
Global
 43
0.0007999999797903
 43
0.0
 43
0.0
 43
0.0
 43
0.0
 43
0.0007999999797903
 43
0.0
 43
0.0
 43
0.0
 43
0.0
 43
1.0
 43
0.0
 43
0.0
 43
0.0
 43
0.0
 43
1.0
 49
0.0007999999797903
 49
0.0
 49
0.0
 49
0.0
 49
0.0
 49
0.0007999999797903
 49
0.0
 49
0.0
 49
0.0
 49
0.0
 49
1.0
 49
0.0
 49
0.0
 49
0.0
 49
0.0
 49
1.0
142
0.0007999999797903
142
0.0
142
0.0
142
0.0
142
0.0
142
0.0007999999797903
142
0.0
142
0.0
142
0.0
142
0.0
142
1.0
142
0.0
142
0.0
142
0.0
142
0.0
142
1.0
144
0.0007999999797903
144
0.0
144
0.0
144
0.0
144
0.0
144
0.0007999999797903
144
0.0
144
0.0
144
0.0
144
0.0
144
1.0
144
0.0
144
0.0
144
0.0
144
0.0
144
1.0
1001
ACAD
1070
    -1
1070
     3
1070
     0
1000

1071
        0
1070
     0
  0
MLEADERSTYLE
  5
12E
102
{ACAD_XDICTIONARY
360
37E9
102
}
102
{ACAD_REACTORS
330
12D
102
}
330
12D
100
AcDbMLeaderStyle
170
     2
171
     1
172
     0
 90
        2
 40
0.0
 41
0.0
173
     1
 91
-1056964608
340
14
 92
       -2
290
     1
 42
2.0
291
     1
 43
8.0
  3
Standard
 44
4.0
300

342
11
174
     1
178
     1
175
     1
176
     0
 93
-1056964608
 45
4.0
292
     0
297
     0
 46
4.0
 94
-1056964608
 47
1.0
 49
1.0
140
1.0
293
     1
141
0.0
294
     1
177
     0
142
1.0
295
     0
296
     0
143
3.75
1001
ACAD_MLEADERVER
1070
     2
  0
MLINESTYLE
  5
18
102
{ACAD_REACTORS
330
17
102
}
330
17
100
AcDbMlineStyle
  2
STANDARD
 70
     0
  3

 62
   256
 51
90.0
 52
90.0
 71
     2
 49
0.5
 62
   256
  6
BYLAYER
 49
-0.5
 62
   256
  6
BYLAYER
  0
ACDBPLACEHOLDER
  5
F
102
{ACAD_REACTORS
330
E
102
}
330
E
  0
SCALE
  5
10D
102
{ACAD_REACTORS
330
10C
102
}
330
10C
100
AcDbScale
 70
     0
300
1:1
140
1.0
141
1.0
290
     1
  0
SCALE
  5
1BE
102
{ACAD_REACTORS
330
10C
102
}
330
10C
100
AcDbScale
 70
     0
300
1:2
140
1.0
141
2.0
290
     0
  0
SCALE
  5
1BF
102
{ACAD_REACTORS
330
10C
102
}
330
10C
100
AcDbScale
 70
     0
300
1:4
140
1.0
141
4.0
290
     0
  0
SCALE
  5
1C0
102
{ACAD_REACTORS
330
10C
102
}
330
10C
100
AcDbScale
 70
     0
300
1:5
140
1.0
141
5.0
290
     0
  0
SCALE
  5
1C1
102
{ACAD_REACTORS
330
10C
102
}
330
10C
100
AcDbScale
 70
     0
300
1:8
140
1.0
141
8.0
290
     0
  0
SCALE
  5
1C2
102
{ACAD_REACTORS
330
10C
102
}
330
10C
100
AcDbScale
 70
     0
300
1:10
140
1.0
141
10.0
290
     0
  0
SCALE
  5
1C3
102
{ACAD_REACTORS
330
10C
102
}
330
10C
100
AcDbScale
 70
     0
300
1:16
140
1.0
141
16.0
290
     0
  0
SCALE
  5
1C4
102
{ACAD_REACTORS
330
10C
102
}
330
10C
100
AcDbScale
 70
     0
300
1:20
140
1.0
141
20.0
290
     0
  0
SCALE
  5
1C5
102
{ACAD_REACTORS
330
10C
102
}
330
10C
100
AcDbScale
 70
     0
300
1:30
140
1.0
141
30.0
290
     0
  0
SCALE
  5
1C6
102
{ACAD_REACTORS
330
10C
102
}
330
10C
100
AcDbScale
 70
     0
300
1:40
140
1.0
141
40.0
290
     0
  0
SCALE
  5
1C7
102
{ACAD_REACTORS
330
10C
102
}
330
10C
100
AcDbScale
 70
     0
300
1:50
140
1.0
141
50.0
290
     0
  0
SCALE
  5
1C8
102
{ACAD_REACTORS
330
10C
102
}
330
10C
100
AcDbScale
 70
     0
300
1:100
140
1.0
141
100.0
290
     0
  0
SCALE
  5
1C9
102
{ACAD_REACTORS
330
10C
102
}
330
10C
100
AcDbScale
 70
     0
300
2:1
140
2.0
141
1.0
290
     0
  0
SCALE
  5
1CA
102
{ACAD_REACTORS
330
10C
102
}
330
10C
100
AcDbScale
 70
     0
300
4:1
140
4.0
141
1.0
290
     0
  0
SCALE
  5
1CB
102
{ACAD_REACTORS
330
10C
102
}
330
10C
100
AcDbScale
 70
     0
300
8:1
140
8.0
141
1.0
290
     0
  0
SCALE
  5
1CC
102
{ACAD_REACTORS
330
10C
102
}
330
10C
100
AcDbScale
 70
     0
300
10:1
140
10.0
141
1.0
290
     0
  0
SCALE
  5
1CD
102
{ACAD_REACTORS
330
10C
102
}
330
10C
100
AcDbScale
 70
     0
300
100:1
140
100.0
141
1.0
290
     0
  0
ACDBSECTIONVIEWSTYLE
  5
21A
102
{ACAD_XDICTIONARY
360
37FB
102
}
102
{ACAD_REACTORS
330
219
102
}
330
219
100
AcDbModelDocViewStyle
 70
     0
  3
Metric50
290
     0
100
AcDbSectionViewStyle
 70
     0
 71
     0
 90
      102
 71
     1
340
11
 40
5.0
340
0
340
0
 40
5.0
300
I, O, Q, S, X, Z
 40
10.0
 90
        0
 40
2.5
 90
        0
 71
     2
340
16
 90
       25
340
16
 90
       50
 40
5.0
 40
2.5
 40
5.0
 71
     3
340
11
 40
5.0
 90
        0
 40
15.0
 90
        1
300
%<\AcVar ViewSectionStartId>%-%<\AcVar ViewSectionEndId>% (%<\AcVar ViewScale \f "%sn">%)
 71
     4
300
ANSI31
 40
1.0
 90
        0
290
     0
290
     0
 90
        6
 40
0.0
 40
1.570796326794896
 40
0.2617993877991494
 40
1.308996938995747
 40
-0.2617993877991494
 40
1.832595714594046
  0
TABLESTYLE
  5
7F
102
{ACAD_XDICTIONARY
360
162
102
}
102
{ACAD_REACTORS
330
7E
102
}
330
7E
100
AcDbTableStyle
  3
Standard
 70
     0
 71
     0
 40
1.5
 41
1.5
280
     0
281
     0
  7
Standard
140
4.5
170
     2
 62
     0
 63
     7
283
     0
274
    -2
284
     1
 64
     0
275
    -2
285
     1
 65
     0
276
    -2
286
     1
 66
     0
277
    -2
287
     1
 67
     0
278
    -2
288
     1
 68
     0
279
    -2
289
     1
 69
     0
  7
Standard
140
6.0
170
     5
 62
     0
 63
     7
283
     0
274
    -2
284
     1
 64
     0
275
    -2
285
     1
 65
     0
276
    -2
286
     1
 66
     0
277
    -2
287
     1
 67
     0
278
    -2
288
     1
 68
     0
279
    -2
289
     1
 69
     0
  7
Standard
140
4.5
170
     5
 62
     0
 63
     7
283
     0
274
    -2
284
     1
 64
     0
275
    -2
285
     1
 65
     0
276
    -2
286
     1
 66
     0
277
    -2
287
     1
 67
     0
278
    -2
288
     1
 68
     0
279
    -2
289
     1
 69
     0
  0
VISUALSTYLE
  5
F5
102
{ACAD_XDICTIONARY
360
37D3
102
}
102
{ACAD_REACTORS
330
EF
102
}
330
EF
100
AcDbVisualStyle
  2
2dWireframe
 70
     4
 71
     0
 72
     2
 73
     1
 90
        0
 40
-0.6
 41
-30.0
 62
     5
 63
     7
 74
     1
 91
        4
 64
     7
 65
   257
 75
     1
175
     1
 42
1.0
 92
        0
 66
   257
 43
1.0
 76
     1
 77
     6
 78
     2
 67
     7
 79
     5
170
     0
171
     0
290
     0
174
     0
 93
        1
 44
0.0
173
     0
291
     0
 45
0.0
1001
ACAD
1000
AcDbSavedByObjectVersion
1070
     0
  0
VISUALSTYLE
  5
F4
102
{ACAD_XDICTIONARY
360
37D1
102
}
102
{ACAD_REACTORS
330
EF
102
}
330
EF
100
AcDbVisualStyle
  2
Basic
 70
     7
 71
     1
 72
     0
 73
     1
 90
        0
 40
-0.6
 41
-30.0
 62
     5
 63
     7
 74
     0
 91
        4
 64
     7
 65
   257
 75
     1
175
     1
 42
1.0
 92
        8
 66
     7
 43
1.0
 76
     1
 77
     6
 78
     2
 67
     7
 79
     5
170
     0
171
     0
290
     0
174
     0
 93
        1
 44
0.0
173
     0
291
     1
 45
0.0
1001
ACAD
1000
AcDbSavedByObjectVersion
1070
     0
  0
VISUALSTYLE
  5
FB
102
{ACAD_XDICTIONARY
360
37DF
102
}
102
{ACAD_REACTORS
330
EF
102
}
330
EF
100
AcDbVisualStyle
  2
Brighten
 70
    12
 71
     2
 72
     2
 73
     1
 90
        0
 40
-0.6
 41
-30.0
 62
     5
 63
     7
 74
     1
 91
        4
 64
     7
 65
   257
 75
     1
175
     1
 42
1.0
 92
        8
 66
     7
 43
1.0
 76
     1
 77
     6
 78
     2
 67
     7
 79
     5
170
     0
171
     0
290
     0
174
     0
 93
        1
 44
50.0
173
     0
291
     1
 45
0.0
1001
ACAD
1000
AcDbSavedByObjectVersion
1070
     0
  0
VISUALSTYLE
  5
FF
102
{ACAD_XDICTIONARY
360
37E7
102
}
102
{ACAD_REACTORS
330
EF
102
}
330
EF
100
AcDbVisualStyle
  2
ColorChange
 70
    16
 71
     2
 72
     2
 73
     3
 90
        0
 40
-0.6
 41
-30.0
 62
     5
 63
     8
 74
     1
 91
        4
 64
     7
 65
   257
 75
     1
175
     1
 42
1.0
 92
        8
 66
     8
 43
1.0
 76
     1
 77
     6
 78
     2
 67
     7
 79
     5
170
     0
171
     0
290
     0
174
     0
 93
        1
 44
0.0
173
     0
291
     1
 45
0.0
1001
ACAD
1000
AcDbSavedByObjectVersion
1070
     0
  0
VISUALSTYLE
  5
F8
102
{ACAD_XDICTIONARY
360
37D9
102
}
102
{ACAD_REACTORS
330
EF
102
}
330
EF
100
AcDbVisualStyle
  2
Conceptual
 70
     9
 71
     3
 72
     2
 73
     1
 90
        0
 40
-0.6
 41
-30.0
 62
     5
 63
     7
 74
     2
 91
        2
 64
     7
 65
   257
 75
     1
175
     1
 42
40.0
 92
        8
 66
     7
 43
1.0
 76
     1
 77
     6
 78
     2
 67
     7
 79
     3
170
     0
171
     0
290
     0
174
     0
 93
        1
 44
0.0
173
     0
291
     0
 45
0.0
1001
ACAD
1000
AcDbSavedByObjectVersion
1070
     0
  0
VISUALSTYLE
  5
FA
102
{ACAD_XDICTIONARY
360
37DD
102
}
102
{ACAD_REACTORS
330
EF
102
}
330
EF
100
AcDbVisualStyle
  2
Dim
 70
    11
 71
     2
 72
     2
 73
     1
 90
        0
 40
-0.6
 41
-30.0
 62
     5
 63
     7
 74
     1
 91
        4
 64
     7
 65
   257
 75
     1
175
     1
 42
1.0
 92
        8
 66
     7
 43
1.0
 76
     1
 77
     6
 78
     2
 67
     7
 79
     5
170
     0
171
     0
290
     0
174
     0
 93
        1
 44
-50.0
173
     0
291
     1
 45
0.0
1001
ACAD
1000
AcDbSavedByObjectVersion
1070
     0
  0
VISUALSTYLE
  5
1E6
102
{ACAD_XDICTIONARY
360
37EF
102
}
102
{ACAD_REACTORS
330
EF
102
}
330
EF
100
AcDbVisualStyle
  2
EdgeColorOff
 70
    22
 71
     2
 72
     2
 73
     0
 90
        0
 40
-0.6
 41
-30.0
 62
     5
 63
     7
 74
     1
 91
        4
 64
     7
 65
   257
 75
     1
175
     1
 42
1.0
 92
        8
 66
     7
 43
1.0
 76
     1
 77
     6
 78
     2
 67
     7
 79
     5
170
     0
171
     0
290
     0
174
     0
 93
        1
 44
0.0
173
     0
291
     1
 45
0.0
1001
ACAD
1000
AcDbSavedByObjectVersion
1070
     0
  0
VISUALSTYLE
  5
FE
102
{ACAD_XDICTIONARY
360
37E5
102
}
102
{ACAD_REACTORS
330
EF
102
}
330
EF
100
AcDbVisualStyle
  2
Facepattern
 70
    15
 71
     2
 72
     2
 73
     1
 90
        0
 40
-0.6
 41
-30.0
 62
     5
 63
     7
 74
     1
 91
        4
 64
     7
 65
   257
 75
     1
175
     1
 42
1.0
 92
        8
 66
     7
 43
1.0
 76
     1
 77
     6
 78
     2
 67
     7
 79
     5
170
     0
171
     0
290
     0
174
     0
 93
        1
 44
0.0
173
     0
291
     1
 45
0.0
1001
ACAD
1000
AcDbSavedByObjectVersion
1070
     0
  0
VISUALSTYLE
  5
F0
102
{ACAD_XDICTIONARY
360
37C9
102
}
102
{ACAD_REACTORS
330
EF
102
}
330
EF
100
AcDbVisualStyle
  2
Flat
 70
     0
 71
     2
 72
     1
 73
     1
 90
        2
 40
-0.6
 41
30.0
 62
     5
 63
     7
 74
     0
 91
        0
 64
     7
 65
   257
 75
     1
175
     1
 42
1.0
 92
        8
 66
     7
 43
1.0
 76
     1
 77
     6
 78
     2
 67
     7
 79
     5
170
     0
171
     0
290
     0
174
     0
 93
       13
 44
0.0
173
     0
291
     1
 45
0.0
1001
ACAD
1000
AcDbSavedByObjectVersion
1070
     0
  0
VISUALSTYLE
  5
F1
102
{ACAD_XDICTIONARY
360
37CB
102
}
102
{ACAD_REACTORS
330
EF
102
}
330
EF
100
AcDbVisualStyle
  2
FlatWithEdges
 70
     1
 71
     2
 72
     1
 73
     1
 90
        2
 40
-0.6
 41
30.0
 62
     5
 63
     7
 74
     1
 91
        0
 64
     7
 65
   257
 75
     1
175
     1
 42
1.0
 92
        0
 66
   257
 43
1.0
 76
     1
 77
     6
 78
     2
 67
     7
 79
     5
170
     0
171
     0
290
     0
174
     0
 93
       13
 44
0.0
173
     0
291
     1
 45
0.0
1001
ACAD
1000
AcDbSavedByObjectVersion
1070
     0
  0
VISUALSTYLE
  5
F2
102
{ACAD_XDICTIONARY
360
37CD
102
}
102
{ACAD_REACTORS
330
EF
102
}
330
EF
100
AcDbVisualStyle
  2
Gouraud
 70
     2
 71
     2
 72
     2
 73
     1
 90
        2
 40
-0.6
 41
30.0
 62
     5
 63
     7
 74
     0
 91
        0
 64
     7
 65
   257
 75
     1
175
     1
 42
1.0
 92
        0
 66
     7
 43
1.0
 76
     1
 77
     6
 78
     2
 67
     7
 79
     5
170
     0
171
     0
290
     0
174
     0
 93
       13
 44
0.0
173
     0
291
     1
 45
0.0
1001
ACAD
1000
AcDbSavedByObjectVersion
1070
     0
  0
VISUALSTYLE
  5
F3
102
{ACAD_XDICTIONARY
360
37CF
102
}
102
{ACAD_REACTORS
330
EF
102
}
330
EF
100
AcDbVisualStyle
  2
GouraudWithEdges
 70
     3
 71
     2
 72
     2
 73
     1
 90
        2
 40
-0.6
 41
30.0
 62
     5
 63
     7
 74
     1
 91
        0
 64
     7
 65
   257
 75
     1
175
     1
 42
1.0
 92
        0
 66
   257
 43
1.0
 76
     1
 77
     6
 78
     2
 67
     7
 79
     5
170
     0
171
     0
290
     0
174
     0
 93
       13
 44
0.0
173
     0
291
     1
 45
0.0
1001
ACAD
1000
AcDbSavedByObjectVersion
1070
     0
  0
VISUALSTYLE
  5
F7
102
{ACAD_XDICTIONARY
360
37D7
102
}
102
{ACAD_REACTORS
330
EF
102
}
330
EF
100
AcDbVisualStyle
  2
Hidden
 70
     6
 71
     1
 72
     2
 73
     2
 90
        0
 40
-0.6
 41
-30.0
 62
     5
 63
     7
 74
     2
 91
        2
 64
     7
 65
   257
 75
     2
175
     1
 42
40.0
 92
        0
 66
   257
 43
1.0
 76
     1
 77
     6
 78
     2
 67
     7
 79
     3
170
     0
171
     0
290
     0
174
     0
 93
        1
 44
0.0
173
     0
291
     0
 45
0.0
1001
ACAD
1000
AcDbSavedByObjectVersion
1070
     0
  0
VISUALSTYLE
  5
1E4
102
{ACAD_XDICTIONARY
360
37EB
102
}
102
{ACAD_REACTORS
330
EF
102
}
330
EF
100
AcDbVisualStyle
  2
JitterOff
 70
    20
 71
     2
 72
     2
 73
     0
 90
        0
 40
-0.6
 41
-30.0
 62
     5
 63
     7
 74
     1
 91
        4
 64
     7
 65
   257
 75
     1
175
     1
 42
1.0
 92
       10
 66
     7
 43
1.0
 76
     1
 77
     6
 78
     2
 67
     7
 79
     5
170
     0
171
     0
290
     0
174
     0
 93
        1
 44
0.0
173
     0
291
     1
 45
0.0
1001
ACAD
1000
AcDbSavedByObjectVersion
1070
     0
  0
VISUALSTYLE
  5
FD
102
{ACAD_XDICTIONARY
360
37E3
102
}
102
{ACAD_REACTORS
330
EF
102
}
330
EF
100
AcDbVisualStyle
  2
Linepattern
 70
    14
 71
     2
 72
     2
 73
     1
 90
        0
 40
-0.6
 41
-30.0
 62
     5
 63
     7
 74
     1
 91
        4
 64
     7
 65
   257
 75
     7
175
     7
 42
1.0
 92
        8
 66
     7
 43
1.0
 76
     1
 77
     6
 78
     2
 67
     7
 79
     5
170
     0
171
     0
290
     0
174
     0
 93
        1
 44
0.0
173
     0
291
     1
 45
0.0
1001
ACAD
1000
AcDbSavedByObjectVersion
1070
     0
  0
VISUALSTYLE
  5
1E5
102
{ACAD_XDICTIONARY
360
37ED
102
}
102
{ACAD_REACTORS
330
EF
102
}
330
EF
100
AcDbVisualStyle
  2
OverhangOff
 70
    21
 71
     2
 72
     2
 73
     0
 90
        0
 40
-0.6
 41
-30.0
 62
     5
 63
     7
 74
     1
 91
        4
 64
     7
 65
   257
 75
     1
175
     1
 42
1.0
 92
        9
 66
     7
 43
1.0
 76
     1
 77
     6
 78
     2
 67
     7
 79
     5
170
     0
171
     0
290
     0
174
     0
 93
        1
 44
0.0
173
     0
291
     1
 45
0.0
1001
ACAD
1000
AcDbSavedByObjectVersion
1070
     0
  0
VISUALSTYLE
  5
F9
102
{ACAD_XDICTIONARY
360
37DB
102
}
102
{ACAD_REACTORS
330
EF
102
}
330
EF
100
AcDbVisualStyle
  2
Realistic
 70
     8
 71
     2
 72
     2
 73
     0
 90
        2
 40
-0.6
 41
30.0
 62
     5
 63
     7
 74
     0
 91
        0
 64
     7
 65
   257
 75
     1
175
     1
 42
1.0
 92
        8
 66
   257
 43
1.0
 76
     1
 77
     6
 78
     2
 67
     7
 79
     3
170
     0
171
     0
290
     0
174
     0
 93
       13
 44
0.0
173
     0
291
     0
 45
0.0
1001
ACAD
1000
AcDbSavedByObjectVersion
1070
     0
  0
VISUALSTYLE
  5
1F3
102
{ACAD_XDICTIONARY
360
37F9
102
}
102
{ACAD_REACTORS
330
EF
102
}
330
EF
100
AcDbVisualStyle
  2
Shaded
 70
    27
 71
     2
 72
     2
 73
     1
 90
        2
 40
-0.6
 41
30.0
 62
     5
 63
     7
 74
     0
 91
        4
 64
     7
 65
   257
 75
     1
175
     1
 42
1.0
 92
        8
 66
   257
 43
1.0
 76
     1
 77
     6
 78
     2
 67
     8
 79
     3
170
     0
171
     0
290
     0
174
     0
 93
        5
 44
0.0
173
     0
291
     0
 45
0.0
1001
ACAD
1000
AcDbSavedByObjectVersion
1070
     0
  0
VISUALSTYLE
  5
1F2
102
{ACAD_XDICTIONARY
360
37F7
102
}
102
{ACAD_REACTORS
330
EF
102
}
330
EF
100
AcDbVisualStyle
  2
Shaded with edges
 70
    26
 71
     2
 72
     2
 73
     1
 90
        2
 40
-0.6
 41
30.0
 62
     5
 63
     7
 74
     1
 91
        2
 64
     7
 65
   257
 75
     2
175
     1
 42
1.0
 92
        8
 66
   257
 43
1.0
 76
     1
 77
     6
 78
     2
 67
     7
 79
     3
170
     0
171
     0
290
     0
174
     0
 93
        5
 44
0.0
173
     0
291
     0
 45
0.0
1001
ACAD
1000
AcDbSavedByObjectVersion
1070
     0
  0
VISUALSTYLE
  5
1EF
102
{ACAD_XDICTIONARY
360
37F1
102
}
102
{ACAD_REACTORS
330
EF
102
}
330
EF
100
AcDbVisualStyle
  2
Shades of Gray
 70
    23
 71
     2
 72
     2
 73
     3
 90
        0
 40
-0.6
 41
-30.0
 62
     5
 63
     7
 74
     2
 91
        2
 64
     7
 65
     7
 75
     1
175
     1
 42
40.0
 92
        8
 66
     7
 43
1.0
 76
     1
 77
     6
 78
     2
 67
     7
 79
     3
170
     0
171
     0
290
     0
174
     0
 93
        1
 44
0.0
173
     0
291
     0
 45
0.0
1001
ACAD
1000
AcDbSavedByObjectVersion
1070
     0
  0
VISUALSTYLE
  5
1F0
102
{ACAD_XDICTIONARY
360
37F3
102
}
102
{ACAD_REACTORS
330
EF
102
}
330
EF
100
AcDbVisualStyle
  2
Sketchy
 70
    24
 71
     1
 72
     2
 73
     2
 90
        0
 40
-0.6
 41
-30.0
 62
     5
 63
     7
 74
     2
 91
        2
 64
     7
 65
     7
 75
     1
175
     1
 42
40.0
 92
       11
 66
     7
 43
1.0
 76
     1
 77
     6
 78
     2
 67
     7
 79
     6
170
     0
171
     0
290
     0
174
     0
 93
        1
 44
0.0
173
     0
291
     0
 45
0.0
1001
ACAD
1000
AcDbSavedByObjectVersion
1070
     0
  0
VISUALSTYLE
  5
FC
102
{ACAD_XDICTIONARY
360
37E1
102
}
102
{ACAD_REACTORS
330
EF
102
}
330
EF
100
AcDbVisualStyle
  2
Thicken
 70
    13
 71
     2
 72
     2
 73
     1
 90
        0
 40
-0.6
 41
-30.0
 62
     5
 63
     7
 74
     1
 91
        4
 64
     7
 65
   257
 75
     1
175
     1
 42
1.0
 92
       12
 66
     7
 43
1.0
 76
     1
 77
     6
 78
     2
 67
     7
 79
     5
170
     0
171
     0
290
     0
174
     0
 93
        1
 44
0.0
173
     0
291
     1
 45
0.0
1001
ACAD
1000
AcDbSavedByObjectVersion
1070
     0
  0
VISUALSTYLE
  5
F6
102
{ACAD_XDICTIONARY
360
37D5
102
}
102
{ACAD_REACTORS
330
EF
102
}
330
EF
100
AcDbVisualStyle
  2
Wireframe
 70
     5
 71
     0
 72
     2
 73
     0
 90
        0
 40
-0.6
 41
-30.0
 62
     5
 63
     7
 74
     1
 91
        4
 64
     7
 65
   257
 75
     1
175
     1
 42
1.0
 92
        0
 66
   257
 43
1.0
 76
     1
 77
     6
 78
     2
 67
     7
 79
     3
170
     0
171
     0
290
     0
174
     0
 93
        1
 44
0.0
173
     0
291
     0
 45
0.0
1001
ACAD
1000
AcDbSavedByObjectVersion
1070
     0
  0
VISUALSTYLE
  5
1F1
102
{ACAD_XDICTIONARY
360
37F5
102
}
102
{ACAD_REACTORS
330
EF
102
}
330
EF
100
AcDbVisualStyle
  2
X-Ray
 70
    25
 71
     2
 72
     2
 73
     1
 90
        1
 40
0.5
 41
-30.0
 62
     5
 63
     7
 74
     1
 91
        0
 64
     7
 65
   257
 75
     1
175
     1
 42
1.0
 92
        8
 66
     7
 43
1.0
 76
     1
 77
     6
 78
     2
 67
     7
 79
     3
170
     0
171
     0
290
     0
174
     0
 93
       13
 44
0.0
173
     0
291
     0
 45
0.0
1001
ACAD
1000
AcDbSavedByObjectVersion
1070
     0
  0
DICTIONARYVAR
  5
146
102
{ACAD_REACTORS
330
5E
102
}
330
5E
100
DictionaryVariables
280
     0
  1
1:1
  0
DICTIONARYVAR
  5
259
102
{ACAD_REACTORS
330
5E
102
}
330
5E
100
DictionaryVariables
280
     0
  1
3.500000
  0
DICTIONARYVAR
  5
25A
102
{ACAD_REACTORS
330
5E
102
}
330
5E
100
DictionaryVariables
280
     0
  1
acadiso.lin
  0
DICTIONARYVAR
  5
145
102
{ACAD_REACTORS
330
5E
102
}
330
5E
100
DictionaryVariables
280
     0
  1
STANDARD
  0
DICTIONARYVAR
  5
84
102
{ACAD_REACTORS
330
5E
102
}
330
5E
100
DictionaryVariables
280
     0
  1
STANDARD
  0
DICTIONARYVAR
  5
227
102
{ACAD_REACTORS
330
5E
102
}
330
5E
100
DictionaryVariables
280
     0
  1
Metric50
  0
DICTIONARYVAR
  5
228
102
{ACAD_REACTORS
330
5E
102
}
330
5E
100
DictionaryVariables
280
     0
  1
Metric50
  0
DICTIONARYVAR
  5
5F
102
{ACAD_REACTORS
330
5E
102
}
330
5E
100
DictionaryVariables
280
     0
  1
2
  0
DICTIONARYVAR
  5
63
102
{ACAD_REACTORS
330
5E
102
}
330
5E
100
DictionaryVariables
280
     0
  1
1
  0
DICTIONARYVAR
  5
376A
102
{ACAD_REACTORS
330
5E
102
}
330
5E
100
DictionaryVariables
280
     0
  1
0
  0
DICTIONARYVAR
  5
1AE
102
{ACAD_REACTORS
330
5E
102
}
330
5E
100
DictionaryVariables
280
     0
  1
0
  0
DICTIONARYVAR
  5
1AF
102
{ACAD_REACTORS
330
5E
102
}
330
5E
100
DictionaryVariables
280
     0
  1
0
  0
DICTIONARYVAR
  5
3768
102
{ACAD_REACTORS
330
5E
102
}
330
5E
100
DictionaryVariables
280
     0
  1
2
  0
DICTIONARYVAR
  5
3767
102
{ACAD_REACTORS
330
5E
102
}
330
5E
100
DictionaryVariables
280
     0
  1
1
  0
DICTIONARYVAR
  5
37BA
102
{ACAD_REACTORS
330
5E
102
}
330
5E
100
DictionaryVariables
280
     0
  1
80.000000
  0
DICTIONARYVAR
  5
37B9
102
{ACAD_REACTORS
330
5E
102
}
330
5E
100
DictionaryVariables
280
     0
  1
5.000000
  0
DICTIONARYVAR
  5
3769
102
{ACAD_REACTORS
330
5E
102
}
330
5E
100
DictionaryVariables
280
     0
  1
127
  0
DICTIONARYVAR
  5
37BB
102
{ACAD_REACTORS
330
5E
102
}
330
5E
100
DictionaryVariables
280
     0
  1
2
  0
DICTIONARY
  5
37FD
330
21C
100
AcDbDictionary
280
     1
281
     1
  3
ACAD_XREC_ROUNDTRIP
360
37FE
  0
DICTIONARY
  5
37C2
330
D3
100
AcDbDictionary
280
     1
281
     1
  3
ACAD_XREC_ROUNDTRIP
360
37C3
  0
DICTIONARY
  5
37C4
330
D7
100
AcDbDictionary
280
     1
281
     1
  3
ACAD_XREC_ROUNDTRIP
360
37C5
  0
DICTIONARY
  5
37BF
330
22
100
AcDbDictionary
280
     1
281
     1
  3
ACAD_XREC_ROUNDTRIP
360
37C0
  0
DICTIONARY
  5
1F9
330
ED
100
AcDbDictionary
280
     1
281
     1
  3
ACAD_XREC_ROUNDTRIP
360
37C7
  3
FBXASSET
360
1FA
  0
DICTIONARY
  5
1F7
330
EC
100
AcDbDictionary
280
     1
281
     1
  3
ACAD_XREC_ROUNDTRIP
360
37C6
  3
FBXASSET
360
1F8
  0
DICTIONARY
  5
173
330
EE
100
AcDbDictionary
280
     1
281
     1
  3
ACAD_XREC_ROUNDTRIP
360
37C8
  3
BUMPTILE
360
175
  3
DIFFUSETILE
360
174
  3
FBXASSET
360
1FB
  3
OPACITYTILE
360
176
  3
REFLECTIONTILE
360
177
  0
DICTIONARY
  5
37E9
330
12E
100
AcDbDictionary
280
     1
281
     1
  3
ACAD_XREC_ROUNDTRIP
360
37EA
  0
DICTIONARY
  5
37FB
330
21A
100
AcDbDictionary
280
     1
281
     1
  3
ACAD_XREC_ROUNDTRIP
360
37FC
  0
DICTIONARY
  5
162
330
7F
100
AcDbDictionary
280
     1
281
     1
  3
ACAD_ROUNDTRIP_2008_TABLESTYLE_CELLSTYLEMAP
360
37BC
  3
ACAD_XREC_ROUNDTRIP
360
37C1
  0
DICTIONARY
  5
37D3
330
F5
100
AcDbDictionary
280
     1
281
     1
  3
ACAD_XREC_ROUNDTRIP
360
37D4
  0
DICTIONARY
  5
37D1
330
F4
100
AcDbDictionary
280
     1
281
     1
  3
ACAD_XREC_ROUNDTRIP
360
37D2
  0
DICTIONARY
  5
37DF
330
FB
100
AcDbDictionary
280
     1
281
     1
  3
ACAD_XREC_ROUNDTRIP
360
37E0
  0
DICTIONARY
  5
37E7
330
FF
100
AcDbDictionary
280
     1
281
     1
  3
ACAD_XREC_ROUNDTRIP
360
37E8
  0
DICTIONARY
  5
37D9
330
F8
100
AcDbDictionary
280
     1
281
     1
  3
ACAD_XREC_ROUNDTRIP
360
37DA
  0
DICTIONARY
  5
37DD
330
FA
100
AcDbDictionary
280
     1
281
     1
  3
ACAD_XREC_ROUNDTRIP
360
37DE
  0
DICTIONARY
  5
37EF
330
1E6
100
AcDbDictionary
280
     1
281
     1
  3
ACAD_XREC_ROUNDTRIP
360
37F0
  0
DICTIONARY
  5
37E5
330
FE
100
AcDbDictionary
280
     1
281
     1
  3
ACAD_XREC_ROUNDTRIP
360
37E6
  0
DICTIONARY
  5
37C9
330
F0
100
AcDbDictionary
280
     1
281
     1
  3
ACAD_XREC_ROUNDTRIP
360
37CA
  0
DICTIONARY
  5
37CB
330
F1
100
AcDbDictionary
280
     1
281
     1
  3
ACAD_XREC_ROUNDTRIP
360
37CC
  0
DICTIONARY
  5
37CD
330
F2
100
AcDbDictionary
280
     1
281
     1
  3
ACAD_XREC_ROUNDTRIP
360
37CE
  0
DICTIONARY
  5
37CF
330
F3
100
AcDbDictionary
280
     1
281
     1
  3
ACAD_XREC_ROUNDTRIP
360
37D0
  0
DICTIONARY
  5
37D7
330
F7
100
AcDbDictionary
280
     1
281
     1
  3
ACAD_XREC_ROUNDTRIP
360
37D8
  0
DICTIONARY
  5
37EB
330
1E4
100
AcDbDictionary
280
     1
281
     1
  3
ACAD_XREC_ROUNDTRIP
360
37EC
  0
DICTIONARY
  5
37E3
330
FD
100
AcDbDictionary
280
     1
281
     1
  3
ACAD_XREC_ROUNDTRIP
360
37E4
  0
DICTIONARY
  5
37ED
330
1E5
100
AcDbDictionary
280
     1
281
     1
  3
ACAD_XREC_ROUNDTRIP
360
37EE
  0
DICTIONARY
  5
37DB
330
F9
100
AcDbDictionary
280
     1
281
     1
  3
ACAD_XREC_ROUNDTRIP
360
37DC
  0
DICTIONARY
  5
37F9
330
1F3
100
AcDbDictionary
280
     1
281
     1
  3
ACAD_XREC_ROUNDTRIP
360
37FA
  0
DICTIONARY
  5
37F7
330
1F2
100
AcDbDictionary
280
     1
281
     1
  3
ACAD_XREC_ROUNDTRIP
360
37F8
  0
DICTIONARY
  5
37F1
330
1EF
100
AcDbDictionary
280
     1
281
     1
  3
ACAD_XREC_ROUNDTRIP
360
37F2
  0
DICTIONARY
  5
37F3
330
1F0
100
AcDbDictionary
280
     1
281
     1
  3
ACAD_XREC_ROUNDTRIP
360
37F4
  0
DICTIONARY
  5
37E1
330
FC
100
AcDbDictionary
280
     1
281
     1
  3
ACAD_XREC_ROUNDTRIP
360
37E2
  0
DICTIONARY
  5
37D5
330
F6
100
AcDbDictionary
280
     1
281
     1
  3
ACAD_XREC_ROUNDTRIP
360
37D6
  0
DICTIONARY
  5
37F5
330
1F1
100
AcDbDictionary
280
     1
281
     1
  3
ACAD_XREC_ROUNDTRIP
360
37F6
  0
XRECORD
  5
37FE
102
{ACAD_REACTORS
330
37FD
102
}
330
37FD
100
AcDbXrecord
280
     1
102
DISPLAYNAME
  1
Metric50
102
FLAGS
 90
        0
  0
XRECORD
  5
37C3
102
{ACAD_REACTORS
330
37C2
102
}
330
37C2
100
AcDbXrecord
280
     1
102
SHADEPLOT
 70
     0
102
SHADEPLOTRESLEVEL
 70
     2
102
SHADEPLOTCUSTOMDPI
 70
   300
  0
XRECORD
  5
37C5
102
{ACAD_REACTORS
330
37C4
102
}
330
37C4
100
AcDbXrecord
280
     1
102
SHADEPLOT
 70
     0
102
SHADEPLOTRESLEVEL
 70
     2
102
SHADEPLOTCUSTOMDPI
 70
   300
  0
XRECORD
  5
37C0
102
{ACAD_REACTORS
330
37BF
102
}
330
37BF
100
AcDbXrecord
280
     1
102
SHADEPLOT
 70
     0
102
SHADEPLOTRESLEVEL
 70
     2
102
SHADEPLOTCUSTOMDPI
 70
   300
  0
XRECORD
  5
37C7
102
{ACAD_REACTORS
330
1F9
102
}
330
1F9
100
AcDbXrecord
280
     1
102
MATERIAL
148
0.0
149
0.0
149
0.0
 93
        0
 94
       63
282
     0
 72
     1
 77
     1
171
     1
175
     1
179
     1
273
     0
  0
XRECORD
  5
1FA
102
{ACAD_REACTORS
330
1F9
102
}
330
1F9
100
AcDbXrecord
280
     1
 70
     1
 90
429727718
  1
D62C5603-E3A1-4AEA-B7FB-FE5D8D0755AF
310
504B03040A0000080000CC70623B3DEE336E79000000790000001B0000006175746F6465736B2D64657369676E2D7061636B6167652E786D6C3C3F786D6C2076657273696F6E3D22312E302220656E636F64696E673D227574662D3822203F3E3C666F726D6174733E3C666F726D61743E687474703A2F2F736368656D612E
310
6175746F6465736B2E636F6D2F64657369676E2D7061636B6167652F323030393C2F666F726D61743E3C2F666F726D6174733E504B0304140006080800CC70623BD486FD9CA0000000F4000000130000005B436F6E74656E745F54797065735D2E786D6C7D8EC10E82300C865F65E91D8A1E8C310C0EEA1BF002731658846E
310
D98AC1B77784ABF1D8FE5FBFBF75BBCE937A534CCEB38643598122B6FEE978D0B0485F9C41B54DDD7D022595594E1A469170414C76A4D9A4D207E29CF43ECE46F218070CC6BECC4078ACAA135ACF422C856C0E68EA1BF5669944DDD7BCDE7B1F8E415D77AECB980613C2E4AC91FC167A2B244592486606FC29C8FD7F045B9A
310
EF7053A7E60B504B0304140006080800CC70623B853B8169EB0000007C01000008000000636F72652E786D6C8D90416EC3201045AF62CDB6C206821CC7C244919D9CA01740401C94182C03558F5F9C3852BBEB6A467FFE9B197D7EFC9E1EC5975982F5AE035262288C535E5B377690E21535501C055FBC8FBF6C503839990E
310
5619041F179FE64D52DE45E362569DD7661365082642A11EB9E920A89B99642953CC8E702F67A9EE7234257977194EC9EAE275C4EABCCF5EAD5940D4AC6F0E35A568B8F43562CD7046CD199FD07E60174276A7BE677B5EADB0E0D14EEFFB6A31321A0D82627C4084204C3F096B71DD52F6819B16635EADF63F509AF53FA164
310
5DDCD1EDDD17164090FCC8732078B56691CB33A85CD7DCC40F504B0304140006080800CC70623B55019EA25F0000007C00000007000000636E782E786D6C4DCB3B0E80201045D1AD90E915ED2CF8AC45050C11660C8261F98AB1B07AC9C97D42D718D865D3E909258CFD00CCE24AC6E326A164D74DC0B4128928FF32603847
310
2BA13128B1252AC747C6BAB984FC68F0B87FE8960A5C09FE86CFB69FBA01504B0304140006080800CC70623BDBABAAF470010000D40300000C0000006662782F636F72652E786D6CC553D16E823014FD95A6AF4B694182CC941A83FA05FB810A9511A125A5257EFE2E82712ECEB8A7F100CD39F7F69E734AF9FADC366850B6
310
AF8DCE7018308C942E4C59EB2AC3DE1D498AD15A706B8CFB56869196ADCAF00863C12B6B7C374385D14E6907A836A59A41D9F7CA615434B0C8705F7CAA5606D23BA8E84F41278B93AC54100640439DE0BDB320004D43C63716C7C399D30917DCFBBA9CD9BA8469F5B156168B24CED3F7248AC8769F27244EB73B92EED8862C
310
B7F13E0C179B3C8F979C8ECD82BBBABDAA2BAC924E9558448CBD9330242CFA08E3154B5651FCC6D215639C8EE5774DBE2B5F6CF2B5768B68963BB5F5588420E442FC700B1139D4CB01F450C1E918227C2E09DF070D8140C84E1E9AAB8F1340832A9CB13130A5F1376A908D57309505ECF2A0DF179C4E9D30F5B239B87E3823
310
7A79C6F31DE1A8A5AEC08474B03C7837EAE4938639B44E5932B833D2C6B6B279CDC613877FA26EE21F4A2A4C63EC7F29A2F301D1F9F7A0E37D145F504B0304140006080800CC70623B9C113CC27E0000009D0000000B0000006662782F636E782E786D6C4DCCDF0A83201C86E15B91DFB94BFB330DD428C8FB886521330DA7
310
6397BF1A1DECE883878F57749FCDA1B7892F1BBC047A23808C7F84D9FA55424E0BE6803A256208E9EF06C84F9B91703228B1C690F78B66B34CD9A5439DF5CF0BFBF65E35BCA1B8D6A5C6F540381E886698B5741C695F9503EBA150A2F8958E3DC3EA0B504B0304140006080800CC70623B7DF2F77C2A010000120200003100
310
00006662782F41393633353835312D344632462D344230382D423046372D3739314545314133324237412F636F72652E786D6C8D51DB8EC22014FC15C2939B0D2DB4B45643319AE817EC0F6041255A68B86CFCFC856D4D76DF7CE190393373060EDB3DC707F856CE6B6B7A480A0C81328395DA5C7B18C3057510EC3873D686
310
3F34088C18550F330C39BB3A1BA7051AAC09CA84841A2BD5020AEF55806078A44B0FFD7053A328440C89E1EFC52486BBB8AA8214A99D789CF9E05200300FC927E4FB4D5B375D43103D5527440FB843077C5AA3F5861C8F645F5787F59E95B390B318B55CE45AA638FAA2957BD7248B390B7A7CC51F9C124149C82B8C378810
310
84AB2F42B7B8DD56F413775B8C5999E9FF4471926F8AA236A1AE96B8B3CC434E5839373893369E1FAF30EA395917409EB7F26AF8801C171837A4A6AC9C89E9F9C9B1A58BA30FD6A5EF5DDDCF894B9AD9B6A59C957943A9FCAE2FD5BC4DFE03504B0304140006080800CC70623BAD7543B64E01000033030000300000006662
310
782F41393633353835312D344632462D344230382D423046372D3739314545314133324237412F636E782E786D6CD593CD6EC32010845F0571AD6CE3D48AD20813A9873E410FBD12D82434182C7EAAE6EDBB2424CD25871E7B41D6EC30B3FA84F9E67BB2E40B4234DE8DB46F1925E094D7C6ED479AD3AE5951B2113C789FEE
310
6C943839C1488B4C05DF079FE72A69D8C96C13AAD6B8631503449F83828872B949AC57D26200B826A308D316B4064D6E46FCDA41C05550DC9E483A00797BFD207EFB092A45DE9514C1BBD22178396BD39D891265658C238DEA00936C654E5E433CB65A26D9F6EDB5EBC14EBF49A45CB856E66048291F6939A9A81BB5C89177
310
38143CA680F4AA299D66A042CEB3354A2684DC9D8D178FE0D9B8B41CAAD720F880EE7EF93C0C18769E099ECC04D5A102C8049A8A05632F4DDF376CF1DE0F6BB65C2F8627B65A33C6BB62177CEBBDAD973006829F89F22E814B54F4BC2BE347F8AA8F681390B50FA73F804400B5F542E796F19FF974E7F78DB802FE05E20750
310
4B0304140006080800CC70623BE75B7789680500003C100000340000006662782F41393633353835312D344632462D344230382D423046372D3739314545314133324237412F6F626A656374732E786D6CAD575B8F9B3818FD2B887D06C22499CB8AA1CA655245D5B455A356FB305264C061D8018C6C3393D95FBFC7600890
310
A4CD5EF210B0B1BFEBF98E3F7B1FF6596ABC522E1296DF9BAE3D320D9A872C4AF2F8DE2CE5CEBA358D0FBEC719939D65A691938CDE9B6ADAF4BD98B3B2D05311DD91329583D9D5FC0F438434A7A611A644887B5384CF34233629258BA878B12322891DEFF6B66BD70BFB62634E8AE781D082709A4B588AF91C528CDA28B73F
310
1C998EEF39EABBEFA97FBD6A7C7E9553F9D3D79FE442923C3C523610337627CB87ABE99D359D4CC6D6E4FACAB5E6ABF9D2726FC6A3C5F56271377BB88362213924694B38DD99FE47C48627A1E7D49F5A8BB5E1A74C0A599ED3B0F21F1E56366B89112D681E218F0915D0D6F17AD41FBA2A369DCF6335D62ABBD39779D5DDD1
310
11D4D8DE3CBB96B2E04FB8202E41051754A1AA8E8F76B4C6DFE810B580B1547F4B84911149794252234D024EF8BBE963A95AE27B3D310A9D5C215C7960FAEE415ED75694C6AFB17BCACA5D99A60A9AA65F217B0BFC53292ACB92BF283FAD0D3621576592CB5BED907C2FA8E9DF794E35E97BEA31BED21FEB401ABB94C44839
310
DCACBF0E1C5DA8DA5B2F4DFFD32AD86F543D9E565E7056502E157C00AD2671CD534549AB752FCA9CDA00677A313F04E51B22FF19E57B300579E3C97EB29F682D92935CEC18CF901B7B54FD8C51F362B56FC72FE0B3C1EAE335EDCCBF5AEC39ADB17DC238973F804BA5E6F6BFE7AF1FB32E523BE9F3BD571418E3631DCA4D48
310
5250CF639223210A9446CA30052EDF057BD35F8329C1ECD84552BF0DC8D18BE7BCE23BFE6BD960AB4A7DE79923A103BEBD80F911CBAA2C60DB19B01CF164A5583B772EE6D3FFA56666CBCDA74DC97724A48F9A58967497E489C4D979006FD7A05E227A1EBDD0F737C623387A9C844D3709995625106D157315F8B8392CD4E0
310
A0B9A720C4BE9829CEF37EA1E13111214D53925356365ADA634861B52519DD27A00AEB808EAF0628E6F435519D446F45CF2C9CF5214F0A15B2F6D06B79DA3EE3CBF7F56780D2F4E7EF73A0F5E5B02A38D07DC852C6B7C1FBB6664213E0C39E3EBA7FF4E1AD23EA2829407C85E586727488B751B2DB9502BC7B228A3FD68B6E
310
A65A22397E690AA8D158D7E404EC8CDA235CC3B7D1898680131CEC2CDF2638C65196279577750F15884AEE19F94199155B92B13297978469D4F8D358DF0AEF7631E28DC8F0D9F437D5D39A83B2231A1D52D543813A824EF8D44BCFF2FA6A31BD1E8DAD87F1CCB526B3879935BF59CDADD5C37479BB1CDD4CA7B3556B516589
310
EF352754B706114D9C885EC9131DE6EFEB43D99AFE2391C2F958179413D7CFEF6B1B6DB1E7600F00DE6E5C67454A339A4BA2E0FBA85ED26F045D454F463DBFCE484C2F90F2E5E3666003662ED8F755951A7D1BECD5B30B550B2785C8E7320B7292A4838DDA71BBC863ED7613CAF659337A3354231D4FF4A182A54904C2898C
310
98B28C4AD0CE056CCF332A80986E571EE9DBC305BB5FEB7E509220A58D25CF042D712A806AC0AD0C657FDEF80D2D9CEAA2EE4D1C76F60BFE74219A06527D6F82DF6412526107381E55E353090704D085B52408A8913C4ED159D79BDA71BB4BC506F4831350EB6F975CD22D69BF7AC49B91A2C0A9DDA3D5CA36AD20FC478E37
310
E61844E2352865EBCB61A275A65283CAAA9DD27703B4102F5AF51EF5F573B75CBB5AD38BC845F7A49F82A0966A49C2E3EA5EA0ECD326CD965F1DB402C6FA8B51A4658C5C5E2EC9E214602E55810345408596591009A82E7E7FFACA19EEA299B14A0081A705CB3296EBC14CDF658DCD336EA6D1136881AAEB87B81AB9EE53D5
310
F5EB8BC8362082DA24122F98680A4E7930C01A0079749CEA14382A0783E5EBA5A10F8C098456A03D6A4AEB6BB881E2513747552A5DB22C7EDAF83BD5528081A365F7FF06504B0304140006080000CC70623B000000000000000000000000350000006662782F41393633353835312D344632462D344230382D423046372D37
310
39314545314133324237412F76657274696365732E62696E504B0304140006080800CC70623BF270F1330600000004000000360000006662782F41393633353835312D344632462D344230382D423046372D3739314545314133324237412F747269616E676C65732E62696E636660600000504B0304140006080000CC7062
310
3B000000000000000000000000370000006662782F41393633353835312D344632462D344230382D423046372D3739314545314133324237412F617474726962757465732E62696E504B0304140006080800CC70623B08DA0BD19000000041010000360000006662782F41393633353835312D344632462D344230382D4230
310
46372D3739314545314133324237412F6469726563746F72792E786D6C858F410AC3201045AF22B36F53E9A60B35CBEEBAE80D244E44489C6234F4F835464A48035D0DF398FF9F8AF63D0E6CC63039F212F8F9020C7D47C6792B21C5FE7403D62A1188E2E60C98D7234A5830286103A55745067B9D86B8A3CF9C7F90C11DE6
310
07FB144396D7B6A82D282E9A152AD114D5EF2CB866EEE831B8EEA07A7BB5A8D7D61A2BAAEB7FD5F70921FF497D00504B0304140006080800CC70623BEDD1DC58FD000000A00100003B0000006662782F41393633353835312D344632462D344230382D423046372D3739314545314133324237412F7265736F75726365732F
310
636F72652E786D6C8D504B6E833010BD0A9A6D65B00922041947112427E8052C33A156828DFCA97AFC9A40A576D7CDCCE87D344F8F9FBFE667F689CE6B6B3A6039850C8DB2A336530731DC4903D95970676DF82583CCC8193B5861107C72362E3BA4AC096842428D1D7107A5F7182053CF7474E0D507CE32973124857FE48B
310
540F3961CEF244279DE03EB81420DB9EAC1384436FA353E879B1B182C7A8C75DA3C7F453DF353A1075D537A7BA6464B8F535A99AE14A9A2BBD90E350DD183B5CFABE3AF262350B1EF4FC9351399401471025A527C218A1E53BAB5A5AB765F5469B96525EACF23FA6B88CFF34456DC2A1DCE36E360F82A5202F42F062ED2BAD
310
579969AFDD8A6F504B010214000A0000080000CC70623B3DEE336E79000000790000001B00000000000000000000000000000000006175746F6465736B2D64657369676E2D7061636B6167652E786D6C504B01021400140006080800CC70623BD486FD9CA0000000F40000001300000000000000000000000000B20000005B
310
436F6E74656E745F54797065735D2E786D6C504B01021400140006080800CC70623B853B8169EB0000007C010000080000000000000000000000000083010000636F72652E786D6C504B01021400140006080800CC70623B55019EA25F0000007C000000070000000000000000000000000094020000636E782E786D6C504B
310
01021400140006080800CC70623BDBABAAF470010000D40300000C00000000000000000000000000180300006662782F636F72652E786D6C504B01021400140006080800CC70623B9C113CC27E0000009D0000000B00000000000000000000000000B20400006662782F636E782E786D6C504B01021400140006080800CC70
310
623B7DF2F77C2A010000120200003100000000000000000000000000590500006662782F41393633353835312D344632462D344230382D423046372D3739314545314133324237412F636F72652E786D6C504B01021400140006080800CC70623BAD7543B64E010000330300003000000000000000000000000000D2060000
310
6662782F41393633353835312D344632462D344230382D423046372D3739314545314133324237412F636E782E786D6C504B01021400140006080800CC70623BE75B7789680500003C10000034000000000000000000000000006E0800006662782F41393633353835312D344632462D344230382D423046372D3739314545
310
314133324237412F6F626A656374732E786D6C504B01021400140006080000CC70623B0000000000000000000000003500000000000000000000000000280E00006662782F41393633353835312D344632462D344230382D423046372D3739314545314133324237412F76657274696365732E62696E504B01021400140006
310
080800CC70623BF270F133060000000400000036000000000000000000000000007B0E00006662782F41393633353835312D344632462D344230382D423046372D3739314545314133324237412F747269616E676C65732E62696E504B01021400140006080000CC70623B0000000000000000000000003700000000000000
310
000000000000D50E00006662782F41393633353835312D344632462D344230382D423046372D3739314545314133324237412F617474726962757465732E62696E504B01021400140006080800CC70623B08DA0BD1900000004101000036000000000000000000000000002A0F00006662782F41393633353835312D344632
310
462D344230382D423046372D3739314545314133324237412F6469726563746F72792E786D6C504B01021400140006080800CC70623BEDD1DC58FD000000A00100003B000000000000000000000000000E1000006662782F41393633353835312D344632462D344230382D423046372D3739314545314133324237412F7265
310
736F75726365732F636F72652E786D6C504B0506000000000E000E0080040000641100000000
  0
XRECORD
  5
37C6
102
{ACAD_REACTORS
330
1F7
102
}
330
1F7
100
AcDbXrecord
280
     1
102
MATERIAL
148
0.0
149
0.0
149
0.0
 93
        0
 94
       63
282
     0
 72
     1
 77
     1
171
     1
175
     1
179
     1
273
     0
  0
XRECORD
  5
1F8
102
{ACAD_REACTORS
330
1F7
102
}
330
1F7
100
AcDbXrecord
280
     1
 70
     1
 90
429727718
  1
30362254-06B7-45E0-A893-8CFA70E3D6BC
310
504B03040A0000080000CC70623B3DEE336E79000000790000001B0000006175746F6465736B2D64657369676E2D7061636B6167652E786D6C3C3F786D6C2076657273696F6E3D22312E302220656E636F64696E673D227574662D3822203F3E3C666F726D6174733E3C666F726D61743E687474703A2F2F736368656D612E
310
6175746F6465736B2E636F6D2F64657369676E2D7061636B6167652F323030393C2F666F726D61743E3C2F666F726D6174733E504B0304140006080800CC70623BD486FD9CA0000000F4000000130000005B436F6E74656E745F54797065735D2E786D6C7D8EC10E82300C865F65E91D8A1E8C310C0EEA1BF002731658846E
310
D98AC1B77784ABF1D8FE5FBFBF75BBCE937A534CCEB38643598122B6FEE978D0B0485F9C41B54DDD7D022595594E1A469170414C76A4D9A4D207E29CF43ECE46F218070CC6BECC4078ACAA135ACF422C856C0E68EA1BF5669944DDD7BCDE7B1F8E415D77AECB980613C2E4AC91FC167A2B244592486606FC29C8FD7F045B9A
310
EF7053A7E60B504B0304140006080800CC70623B1EC5D7A3EB0000007C01000008000000636F72652E786D6C8D90416EC3201045AF82665B6103C6756C6122AB4D4ED00B204C5C94182C03558F5F9C3852BBEB6A467FFE9B197D71FC9E6FE8CBACC17AD7032D0820E3B41FAD9B7A48F1820F808E52ACDEC75F36404ECDA687
310
4D0629A6D5A76597B477D1B89855E747B38B2A041301E95B6E7A08FAD3CCAA50296647B8168BD2573599823EBB0CA76447F43862C7BCCF5EAC59410E4DDD9C7973C2755553CCCFA4C603E3040F1565ED3B1FDE4E432BCA0D9622DAF9795FAF464533826484B498524CD807E51D79ED187F21878E10516EF63F505AC67F42C9
310
BA58B1FDDD071640D2FCC87D2045B96591CB3DA85CB7DCE40F504B0304140006080800CC70623B55019EA25F0000007C00000007000000636E782E786D6C4DCB3B0E80201045D1AD90E915ED2CF8AC45050C11660C8261F98AB1B07AC9C97D42D718D865D3E909258CFD00CCE24AC6E326A164D74DC0B4128928FF32603847
310
2BA13128B1252AC747C6BAB984FC68F0B87FE8960A5C09FE86CFB69FBA01504B0304140006080800CC70623B8C9102E971010000D40300000C0000006662782F636F72652E786D6CC5535B6E833010BC8AE5DF0A6C08340F1947A84D4ED00B38C6A128602363A31CBFCB234A53A551FA553EC09AD9F5CE8C31DB9E9B1AF5CA
310
7695D1198E428A91D2D214952E33ECDD315861B4E5CC1AE3BE9561A445A3323CC098B3D21ADFCE9034DA29ED00D5A6503328BA4E398C640D8B0C77F253352214DE4145770A5B214FA2546114020D759C75CE8200340D19DE981F0F6746269C33EFAB6266AB02A655C74A59CCF365BADC27CB5D902ED22848F6340DF238A141
310
BE88E2F57B92BFEDF23523433367AE6A2EEAA455C2A902F398D2751045018D3FA264435F3771F242571B4A1919CA6F9A7C5B3CD9E42BED16F12C776AEB308F40C848FC700B1139D4891EF410CEC810227CC6846F8386402064270EF5C5C709A05E49676C024C61FC95EA45ED154CA5211D1FF4FB8291A913A68E9B83EBBB33
310
E2A7673CDE118E5AE8124C0807CB8377834E366998436B950D7A7746DAD846D4CFD978E0F04FD455FC5D49D2D4C6FE9722321F10997F0F32DC47FE05504B0304140006080800CC70623BFFEA85907E0000009D0000000B0000006662782F636E782E786D6C4DCCD10A83201886E15B91FFDC95D95A811AB6F23E625948A6C3
310
E9D8E5AF46073BFAE0E1E365ED67B3E8ADC3CB78C7815C7240DA3DFC64DCC221C519D7805AC182F7F1EF06C88D9BE6703008B6049F9E274D7A1E938DBB5AE3D6131B2589BA0D3D965551E0B2EA732C9B9A624AAEB41E3A557677029960D9AFB4EF11165F504B0304140006080800CC70623B4FEEA4082C0100001202000031
310
0000006662782F39464131463745442D413632322D343644302D413938332D3331353338454246344243312F636F72652E786D6C8D515B6EC32010BC0AE2AB55850DD871ED0813254D72825EC00192A2C460F1A872FC42ED48ED5F7E00CDCECCCEB26C731F6FE05B39AFADE921293004CA082BB5B9F43086336A21D870E6AC
310
0D7F68109861543DCC30E4ECE26C9C164858139409093556AA051CBC570102714B8F1E7AF1A5C6A11862480C7F2DA6415C878B2A4891CA89C7990F2E050073937C42DE1DB7E4F87ED8A36D4329AA9B3D46DBAEAD504556557BD81DEBDD0761E52CE42C462D17B996298E3E6BE59E35C962CE821E1FF18553435012728A7187
310
0841987E927A8D9B35ADDF70BBC6989599FE4F1427F9A4286A132ABAC49D651EF234CD5CE04CDA78BA3DC2A8FB645D00B9DF8B57E215725C60BCA2A463E54C4CE327C7A65E1C7DB02E7DEFCBF594B864C5CA6CDBD49C957943E9FA5D5FBAF336F90F504B0304140006080800CC70623BAD7543B64E01000033030000300000
310
006662782F39464131463745442D413632322D343644302D413938332D3331353338454246344243312F636E782E786D6CD593CD6EC32010845F0571AD6CE3D48AD20813A9873E410FBD12D82434182C7EAAE6EDBB2424CD25871E7B41D6EC30B3FA84F9E67BB2E40B4234DE8DB46F1925E094D7C6ED479AD3AE5951B2113C
310
789FEE6C943839C1488B4C05DF079FE72A69D8C96C13AAD6B8631503449F83828872B949AC57D26200B826A308D316B4064D6E46FCDA41C05550DC9E483A00797BFD207EFB092A45DE9514C1BBD22178396BD39D891265658C238DEA00936C654E5E433CB65A26D9F6EDB5EBC14EBF49A45CB856E66048291F6939A9A81BB5
310
C8917738143CA680F4AA299D66A042CEB3354A2684DC9D8D178FE0D9B8B41CAAD720F880EE7EF93C0C18769E099ECC04D5A102C8049A8A05632F4DDF376CF1DE0F6BB65C2F8627B65A33C6BB62177CEBBDAD973006829F89F22E814B54F4BC2BE347F8AA8F681390B50FA73F804400B5F542E796F19FF974E7F78DB802FE05
310
E207504B0304140006080800CC70623B16AB87BA640500003C100000340000006662782F39464131463745442D413632322D343644302D413938332D3331353338454246344243312F6F626A656374732E786D6CAD575B6FA33818FD2B887DE6924B3BED8A326A92B68A663B534DD4D13E548A0C38942D60649B369D5FBFC7
310
600890A493BDE42160637FD7F31D7FF63E6FB3D478A55C242CBF3247B66B1A340F5994E4F19559CA8D75611A9F7D8F33263BCB4C232719BD32D5B4E97B316765A1A722BA21652A07B3B7B33F0D11D29C9A46981221AE4C113ED38CD8A4942CA2E2C58E882476BCD9DA23BB5ED8171B73523C0F841684D35CC252CCE79062D4
310
468DFA43D7747CCF51DF7D4FFDEB5593E3AB9CCA9FBEFE241792E4E19EB28198C968BAB8199F5D5A67D3E9C49A9E8F47D6EC76B6B0469F26EEFC7C3EBFBCBEB98462213924694B38DD98FE1D62C393D073EA4FADC5DAF04326852CCF6958F90F0F2B9BB5C48816348F90C7840A68EB78EDF68723159BCEE7891A6B95DDE9D3
310
BCEAEEE8086A6C6F9E5D4B59F0175C10A7A0820BAA5055C7473B5AE3CFDD452D602CD5DF12616444529E90D448938013FE6EFA58AA96F85E4F8C42275708571E98FE6827AF6B2B4AE3D7D83D64E5A64C53054DD3AF90BD06FEA9149565C94FCA0F6B834DC85599E4F2423B24DF0B6AFA979E534DFA9E7A4CC6FA631D486393
310
921829879BF5D781A373557BCB85E97FB90DB62B558F8795179C15944B051F40AB495CF35451D26A4727654E6D8033BD98EF82F21D91FF8AF2DD9982BCF1643BDD4EB516C9492E368C67C88DED563FC36D5EACF66DFF057C3658BDBFA69DF9578B3DA735B64F18C7F20770A9D45CFCF7FCF563D6456A277DBEF78A02637CA2
310
43B90A490AEAB94F72244481D24819A6C0E59B606BFA4B3025981DBB48EAB701D97BF19C577CC77F2D1B6C55A9EF3C732474C0B727303F625995056C3B02963D9EAC146BE78EC5FCEC7FA999EBC5EACBAAE41B12D27B4D2C0BBA49F244E2ECDC81B76B502F113D8F5EE8FB1BE3111CDD4FC2AA9B844CAB1288B68AB90A7CDC
310
1C166AB0D3DC5310625FCC14E779BFD0709F8890A629C9292B1B2DED31A4B0DA928CEE135085754027E3018A397D4D5427D15BD1330B677DC8934285AC3DF45A9EB68FF8F2B8FC0A509AFEECFD0FF2DE25CC6047F7214B195F07EFEB9A094D800F7BFAE8FED187B78EA8A3A400F115961BCAD1215E47C966530AF0EE8128FE
310
58CEBB996A8964FFA529A046635D9353B0336A8F700DDF46271A024E70B0B37C9DE01847591E54DED53D54202AB947E4076556AC49C6CA5C9E1226B7F1A7B1BE15DEED62C41B91E1B3E9AFAAA735036547343A925075041DF0A9979E893B391F8FCFA6967B3EFB644DCF6E5CEBFAE272625DCC6FAF3FB93793C5F90CE1EF57
310
407342756B10D1C489E8953CD1617E5CEECAD6F4EF8914CE5D5D504E5C3F1F9736DA62CFC11E00BCDDB8CC8A9466349744C1F75EBDA4DF09BA8A9E8C7A7E9991989E20E5DBDD6A6003664ED8F7A04A8DBE0DF6EAD9B9AA858342E47399053949D2C146EDB85DE4B176BB0965FBAC19BD19AA918E27FA50C1D22402E144464C
310
59462568E704B6E71915404CB72B8FF4EDE184DDAF753F284990D2C6926782963815403548A70C657FDEF80D2D9CEAA2AE4C1C76F60BFE74219A06527D6582DF6412526107381E55E353090704D085B52408D0933C4ED159D79BDA71BB4BC506F4831350EB6F979CD22D69BF7AC49B91A2C0A9DDA3D5CA36AD20FC478E37E6
310
1844E2352865EBCB6EA275A652E3836BE04EFB400BF1A2556F515F1FBB35B2AB35BD889C744FFA1004B5544B121E57F70215746DD2F5E2C1412B602CBF19455AC6C8E5E9922C4E01E65215385004546899059180EAFCF7A707CE7017CD8CDB0410789AB32C63B91E5CEBBBACB17AC6CD347A022D5075FD106377347AAABA7E
310
7D11590744509B44E205134DC1290F06580320F78E537D3D73540E06CB970B431F185308AD40BBD794D6D77003C5A36E8EAA54BA64597CD8F83BD552A080A365F7FF06504B0304140006080000CC70623B000000000000000000000000350000006662782F39464131463745442D413632322D343644302D413938332D3331
310
353338454246344243312F76657274696365732E62696E504B0304140006080800CC70623BF270F1330600000004000000360000006662782F39464131463745442D413632322D343644302D413938332D3331353338454246344243312F747269616E676C65732E62696E636660600000504B0304140006080000CC70623B
310
000000000000000000000000370000006662782F39464131463745442D413632322D343644302D413938332D3331353338454246344243312F617474726962757465732E62696E504B0304140006080800CC70623B08DA0BD19000000041010000360000006662782F39464131463745442D413632322D343644302D413938
310
332D3331353338454246344243312F6469726563746F72792E786D6C858F410AC3201045AF22B36F53E9A60B35CBEEBAE80D244E44489C6234F4F835464A48035D0DF398FF9F8AF63D0E6CC63039F212F8F9020C7D47C6792B21C5FE7403D62A1188E2E60C98D7234A5830286103A55745067B9D86B8A3CF9C7F90C11DE607
310
FB144396D7B6A82D282E9A152AD114D5EF2CB866EEE831B8EEA07A7BB5A8D7D61A2BAAEB7FD5F70921FF497D00504B0304140006080800CC70623B0D6EF93BFE000000A00100003B0000006662782F39464131463745442D413632322D343644302D413938332D3331353338454246344243312F7265736F75726365732F63
310
6F72652E786D6C8D50596E833010BD0A9ADFCA60B334011947A8694ED00B586642AC041B79A97AFC9A40A5F6AF3F33A3B7689E1E3F7DCD8FEC139DD7D6F4C0720A191A65476DA61E62B892236427C19DB5E1970C322367EC618541F0C9D9B8EC90B226A009093576C41D94DE63804C3DD2D18357379C652E63480A7FCF17A9
310
EE72C29CE5894E3AC17D702940B63D59270887DE46A7D0F36263058F518FBB468FE9A7BE6A7420864373B8D4873369AA8691FA421B3294352543C5CAF65C0F6FEF43CB8BD52C78D0F34F46E550061C419494B6843142CB0F5677F4B52BEB177AEC28E5C52AFF638ACBF84F53D42654E51E77B379102C05791282176B5F693D
310
CB4C7BED567C03504B010214000A0000080000CC70623B3DEE336E79000000790000001B00000000000000000000000000000000006175746F6465736B2D64657369676E2D7061636B6167652E786D6C504B01021400140006080800CC70623BD486FD9CA0000000F40000001300000000000000000000000000B20000005B
310
436F6E74656E745F54797065735D2E786D6C504B01021400140006080800CC70623B1EC5D7A3EB0000007C010000080000000000000000000000000083010000636F72652E786D6C504B01021400140006080800CC70623B55019EA25F0000007C000000070000000000000000000000000094020000636E782E786D6C504B
310
01021400140006080800CC70623B8C9102E971010000D40300000C00000000000000000000000000180300006662782F636F72652E786D6C504B01021400140006080800CC70623BFFEA85907E0000009D0000000B00000000000000000000000000B30400006662782F636E782E786D6C504B01021400140006080800CC70
310
623B4FEEA4082C0100001202000031000000000000000000000000005A0500006662782F39464131463745442D413632322D343644302D413938332D3331353338454246344243312F636F72652E786D6C504B01021400140006080800CC70623BAD7543B64E010000330300003000000000000000000000000000D5060000
310
6662782F39464131463745442D413632322D343644302D413938332D3331353338454246344243312F636E782E786D6C504B01021400140006080800CC70623B16AB87BA640500003C1000003400000000000000000000000000710800006662782F39464131463745442D413632322D343644302D413938332D3331353338
310
454246344243312F6F626A656374732E786D6C504B01021400140006080000CC70623B0000000000000000000000003500000000000000000000000000270E00006662782F39464131463745442D413632322D343644302D413938332D3331353338454246344243312F76657274696365732E62696E504B01021400140006
310
080800CC70623BF270F133060000000400000036000000000000000000000000007A0E00006662782F39464131463745442D413632322D343644302D413938332D3331353338454246344243312F747269616E676C65732E62696E504B01021400140006080000CC70623B0000000000000000000000003700000000000000
310
000000000000D40E00006662782F39464131463745442D413632322D343644302D413938332D3331353338454246344243312F617474726962757465732E62696E504B01021400140006080800CC70623B08DA0BD190000000410100003600000000000000000000000000290F00006662782F39464131463745442D413632
310
322D343644302D413938332D3331353338454246344243312F6469726563746F72792E786D6C504B01021400140006080800CC70623B0D6EF93BFE000000A00100003B000000000000000000000000000D1000006662782F39464131463745442D413632322D343644302D413938332D3331353338454246344243312F7265
310
736F75726365732F636F72652E786D6C504B0506000000000E000E0080040000641100000000
  0
XRECORD
  5
37C8
102
{ACAD_REACTORS
330
173
102
}
330
173
100
AcDbXrecord
280
     1
102
MATERIAL
148
0.0
149
0.0
149
0.0
 93
        0
 94
       63
282
     0
 72
     1
 77
     1
171
     1
175
     1
179
     1
273
     0
  0
XRECORD
  5
175
102
{ACAD_REACTORS
330
173
102
}
330
173
100
AcDbXrecord
280
     1
270
     1
271
     1
  0
XRECORD
  5
174
102
{ACAD_REACTORS
330
173
102
}
330
173
100
AcDbXrecord
280
     1
270
     1
271
     1
  0
XRECORD
  5
1FB
102
{ACAD_REACTORS
330
173
102
}
330
173
100
AcDbXrecord
280
     1
 70
     0
 90
1673772943
  1
ECE7A1D2-D628-4531-984C-D00F80459256
310
504B03040A0000080000CC70623B3DEE336E79000000790000001B0000006175746F6465736B2D64657369676E2D7061636B6167652E786D6C3C3F786D6C2076657273696F6E3D22312E302220656E636F64696E673D227574662D3822203F3E3C666F726D6174733E3C666F726D61743E687474703A2F2F736368656D612E
310
6175746F6465736B2E636F6D2F64657369676E2D7061636B6167652F323030393C2F666F726D61743E3C2F666F726D6174733E504B0304140006080800CC70623BD486FD9CA0000000F4000000130000005B436F6E74656E745F54797065735D2E786D6C7D8EC10E82300C865F65E91D8A1E8C310C0EEA1BF002731658846E
310
D98AC1B77784ABF1D8FE5FBFBF75BBCE937A534CCEB38643598122B6FEE978D0B0485F9C41B54DDD7D022595594E1A469170414C76A4D9A4D207E29CF43ECE46F218070CC6BECC4078ACAA135ACF422C856C0E68EA1BF5669944DDD7BCDE7B1F8E415D77AECB980613C2E4AC91FC167A2B244592486606FC29C8FD7F045B9A
310
EF7053A7E60B504B0304140006080800CC70623BD9DDAED0EC0000007C01000008000000636F72652E786D6C8D90416EC3201045AF82665B61836D9CD8C2444DD39CA01740405C94182C03558F5F9C3852BBEB6A467FFE9B197D7EF89E6EE8CB2CC17A37002D0820E394D7D68D03A478C17B4007C117EFE32F1B20272733C0
310
2A83E0E3E2D3BC49CABB685CCCAAF3DA6CA20CC14440EA969B0182FA34932C648AD911AEC52CD5558EA6A0CF2EC329598D1E47ACCEFBECC59A050463A7EA5833865FEBDD0E37353BE3EE8DBDE3F6786A48D375FBF6CC78B9C282473B3DEFABC5C86834888A900E538A49F5419B9EB47DD5BC907D4F082F57FB1F28CDFA9F50
310
B22ED6D5F6EE030B20687EE43E10BC5CB3C8E51E54AE6B6EE207504B0304140006080800CC70623B55019EA25F0000007C00000007000000636E782E786D6C4DCB3B0E80201045D1AD90E915ED2CF8AC45050C11660C8261F98AB1B07AC9C97D42D718D865D3E909258CFD00CCE24AC6E326A164D74DC0B4128928FF326038
310
472BA13128B1252AC747C6BAB984FC68F0B87FE8960A5C09FE86CFB69FBA01504B0304140006080800CC70623BA24EB22D72010000D40300000C0000006662782F636F72652E786D6CC5535B6E833010BC8AE5DF0A6C5E49888CA3A6694ED00B38E05014B091B1518EDFE511A5A9D228FD2A1F60CDEC7A67C6986DCE4D8D7A
310
69BA4AAB0C073EC548AA5C17952A33ECECD15B61B4E1CC686DBF9561A44423333CC098B3D268D7CE50AE9595CA02AA74216750749DB418E5352C32DCE59FB211BE70162ABA93DF8AFC244AE9073ED050C759670D0840D390E18DF9F1706664C23973AE2A66B62A605A75ACA4C13C4976E1364A12EF355A2EBD384AF65EFA96
310
BC7B8BED2EA6719AAE16FB8491A199335B351775B991C2CA02F390D2D40B028F861F41BCA68B7518BFD0D59A524686F29B26D7164F36B94AD9289CE54E6D1DE6010819891F6E21228B3AD1831EC219194284CF98F06DD01008846CC5A1BEF83801D4CBDC6A1303536877A57A513B0953A94FC707FDBE6064EA84A9E3E6E0FA
310
EE8CF0E9198F7784A316AA0413C2C2F2E0ECA0934D1AE6D05A69BCDE9E91D2A611F573361E38FC1375157F5752AE6B6DFE4B11990F88CCBF0719EE23FF02504B0304140006080800CC70623B408A7D3B7C0000009D0000000B0000006662782F636E782E786D6C4DCCD10A83201886E15B91FFDC552A92A0064DBC8F581632
310
D3703A76F9ABD1C18E3E78F878E5F0D9027ABBFCF2292AE86E2D20171F69F6715550CB827B40839639A5F2770314A7CD293819B45C73AAFB45B35BA61ACAA1C1C7E7855C58C15BC331339661262CC762340413D68D77DA5B42298546CBE6573AF60CEB2F504B0304140006080800CC70623B449FB9BD290100001202000031
310
0000006662782F36394639363044362D344446342D343946362D394244322D3234314243333846323333332F636F72652E786D6C8D515B6EC32010BC0AE22B55850D98B871848994463E412FE002495162B07854397EA176A4F62F3F2C9A9D991D587EB84F37F0AD7D30CEF6905418026DA553C65E7A98E219ED203808EE9D
310
8B7F6810D871D23D2C3014FCE25D9A57483A1BB58D19B54EE9151C43D0110279CB971E06F9A5A7B11A53CC8C70ADE6515EC78BAE4895DB992778883E0700CB907242D17643D7E2538BD869608875438BBAE38922CAC8F1BDD90DB4691A5E2F42C153326A951B95E398B3D1FE599322163C9AE9115F7A3D46ADA0A018778810
310
84E907617BDCEE297BC5BB3DC6BC2EF47FA234AB2745C9D8D8D035EE220B50105E2F0DC1954B9FB747187D9F9D8FA0CCDB042D5FA0C015C65B42DF78BD10F3F3B363CB56C7109DCFDFBBB97E662ED92EB62D13BC2E1BCAE5777DB9966D8A1F504B0304140006080800CC70623BAD7543B64E01000033030000300000006662
310
782F36394639363044362D344446342D343946362D394244322D3234314243333846323333332F636E782E786D6CD593CD6EC32010845F0571AD6CE3D48AD20813A9873E410FBD12D82434182C7EAAE6EDBB2424CD25871E7B41D6EC30B3FA84F9E67BB2E40B4234DE8DB46F1925E094D7C6ED479AD3AE5951B2113C789FEE
310
6C943839C1488B4C05DF079FE72A69D8C96C13AAD6B8631503449F83828872B949AC57D26200B826A308D316B4064D6E46FCDA41C05550DC9E483A00797BFD207EFB092A45DE9514C1BBD22178396BD39D891265658C238DEA00936C654E5E433CB65A26D9F6EDB5EBC14EBF49A45CB856E66048291F6939A9A81BB5C89177
310
38143CA680F4AA299D66A042CEB3354A2684DC9D8D178FE0D9B8B41CAAD720F880EE7EF93C0C18769E099ECC04D5A102C8049A8A05632F4DDF376CF1DE0F6BB65C2F8627B65A33C6BB62177CEBBDAD973006829F89F22E814B54F4BC2BE347F8AA8F681390B50FA73F804400B5F542E796F19FF974E7F78DB802FE05E20750
310
4B0304140006080800CC70623B8D05915C650500003B100000340000006662782F36394639363044362D344446342D343946362D394244322D3234314243333846323333332F6F626A656374732E786D6CAD575B6FA33814FE2B887D06429276DA1565D4266D158D3A339A6846FB502932E050B66023DB74D2FDF5FB190C01
310
9276B2973C046C8ECFF53B17071F77456EBD502133CEAE6CDF9DD81665314F32965ED995DA3A17B6F5310C04E7AA47665B8C14F4CAD6DB7618A48257A5D94AE89654B91AEDDEDDFC61C998326A5B714EA4BCB265FC440BE2924AF184CA6737218AB8E976E7FA6E4338649B0A523E8D98964450A6A029F619B8588D52FE7039
310
B1BD30F0F4F730D0FF866AF6369557DB33949F31A9088B0F848DD8CCFCF9F2767A76E99CCDE733677E3EF59D9BBB9BA5E37F984D16E78BC5E5F5ED25044B25C0C96822E8D60EEFE11B91C581D77CEA34368A1F5329E68CD1B8B61F16D63A1B8E092D294B10C78C4A48EB593D192E7DED9BDEE7995E1B91FDEDD3ACEA9FE831
310
6A756F9F7D4D79F4274C90A7A04248AA51D5F8C718DAE06FB2F75AC4796EBE65D22A88A22223B995679120E2D50E41AA49C260C046A35368846B0BECD0DFF3EBEB8AD4F835768F69B9ADF25C43D30E6B646F807FAA64AD59F61715C7A54127C4AACA98BA3006A9D792DAE165E0D59B61A01FB3A9F9D838D2DAE62445C86166
310
F37564E842E7DE6A69879FEEA2DD5AE7E371E1A5E025154AC307D06A03D73EB5978C58FFA4C8E9033066E0F3BD53BEC1F39F91BE7B55103791EDE6BBB991A2046172CB4581D8B893FA674DDA17A77B3B7C413D1B511FD2743BFF8A38F03A658705E3ADF8015C3A3417FF3D7E439FF591DA0B5F18BC20C1B8981957AE6392A3
310
F43C640C01D1A0B4728E2DD4F26DB4B3C3152A252A3B4E913CEC1C72F012782FF88EFF8637AA552DBEF76408E8A8DE9E50F9E1CB3A2DA0DB1B6039A893B56063DC5B3E3FFB5F72E67AB9FEB4AEC496C4F4C1149625DD662C53E89D7BF0F6151A046260D1337DFDC94502430F83B0EE07A130A224BCAD7DAE1D9FB6CD422FF6
310
920702629C4BB9AE79C12F243C6432A6794E18E5552BA56B431AAB5D91317302B2B071E86C3A42B1A02F999E24061403B5D0EB639195DA655DD3EBEAB4FB862DDF579F014AD0E73C22F99E28DA57FB98E75C6CA2D74D53086D600F4786E0FE3144B771A8A7B900F03594DB8A633CBC49B2EDB69228BB479CF863B5E807AAAB
310
23872F6DFEB4129B949CA33823F58830E86D65621E10047D9DB34D862E8EAC3C2ABC2F7B2C40D67CDFE01F5545B92105AF983AC54D93D69E56FB8E797F88913F898A9FEC705D3F9D1B54EC8426FB500D40A03BD0119B06E1B95DDC7EB8F6975367793EBD70E66733DFB9BC982F9CE564727731999F5D4ECFCE3B8D6A4DC2A0
310
6D50FD148437D110834A64C6CDDF57FBACB5C307A2A477DFE4939736CFEF2B175371E0E10CF0DD1D5C15654E0BCA14D1E87DD02FF93782A162C0A3D95F1524A52770F972BF1EE9809D13CE7DD599467F8ECE9ADD85CE85A34CD45355448C64F9E8A031DC2D596ACC6E5DD93D9B82DE2EF5CAF81363A8E47996A0DE24564A79
310
4115AACE09C55E14540231FDA13C319787134EBF34E3A022514E5B4D9E0826E25C02D5805B15ABE1BEF51B26383D445DD9E875EE33FE4C22DA16427D65A3BCA92CA6D28DD01DF5DC53330704308475351050232CCD31583787BA75774AFB06E5070DD0C8EF484E19968C5D83BA5B90B244D31E54D55A372320FE4786B7EA58
310
44E135AA5467CB7EA333A61683CC6A8C3257034C10CF46F40EF9F5BE59BE5BD30C3C72D235E95D10345C1D45445A5F0BB47E46A5EBE5570F9380B5FA629579952296A773720405982B9DE04011506178964401AA8BDF1FBF0A8EAB6861DD6580C0E38217056766716DAEB2D6FA0917D3E4116581EADB879C4E7CFFB11EFACD
310
3D641311495D92C8676CB409A72D18610D803CE8A626049E8EC1887CB5B44CC39883690DDA8399B4B9855B481E7D71D4A9D22F96E5BB73BF5793020C02137BF837504B0304140006080000CC70623B000000000000000000000000350000006662782F36394639363044362D344446342D343946362D394244322D32343142
310
43333846323333332F76657274696365732E62696E504B0304140006080800CC70623BF270F1330600000004000000360000006662782F36394639363044362D344446342D343946362D394244322D3234314243333846323333332F747269616E676C65732E62696E636660600000504B0304140006080000CC70623B0000
310
00000000000000000000370000006662782F36394639363044362D344446342D343946362D394244322D3234314243333846323333332F617474726962757465732E62696E504B0304140006080800CC70623B08DA0BD19000000041010000360000006662782F36394639363044362D344446342D343946362D394244322D
310
3234314243333846323333332F6469726563746F72792E786D6C858F410AC3201045AF22B36F53E9A60B35CBEEBAE80D244E44489C6234F4F835464A48035D0DF398FF9F8AF63D0E6CC63039F212F8F9020C7D47C6792B21C5FE7403D62A1188E2E60C98D7234A5830286103A55745067B9D86B8A3CF9C7F90C11DE607FB14
310
4396D7B6A82D282E9A152AD114D5EF2CB866EEE831B8EEA07A7BB5A8D7D61A2BAAEB7FD5F70921FF497D00504B0304140006080800CC70623BCA768048FE000000A00100003B0000006662782F36394639363044362D344446342D343946362D394244322D3234314243333846323333332F7265736F75726365732F636F72
310
652E786D6C8D50596E833010BD0A9ADFCA60D600328E9AA639412F609909B1126CE4A5EAF16B0295DABFFECC8CDEA2797AECF8353F924FB44E193D409E5248504B332A3D0D10FC95B4901C39B3C6F85F3248B49871801506CE266BC2B243D2688FDA47549B11775038871E12F988C7004EDE7016A9083E2ADC3D5D84BC8B09
310
D33C8D74D471E6BC8D0192EDC93A815B742658898E651BCB59086ADC356A8C3FD555A1055ED7E7E254D615792D0F075295F585746FF53B694EE78A565DD736979A65AB9933AFE69F8CD2A2F038022F28ED489E135A7CE4554F9BBEA85E68DB53CAB255FEC71496F19FA6A0B42F8B3DEE6673C0F318E4497096AD7DC5F52C33
310
EEB55BFE0D504B010214000A0000080000CC70623B3DEE336E79000000790000001B00000000000000000000000000000000006175746F6465736B2D64657369676E2D7061636B6167652E786D6C504B01021400140006080800CC70623BD486FD9CA0000000F40000001300000000000000000000000000B20000005B436F
310
6E74656E745F54797065735D2E786D6C504B01021400140006080800CC70623BD9DDAED0EC0000007C010000080000000000000000000000000083010000636F72652E786D6C504B01021400140006080800CC70623B55019EA25F0000007C000000070000000000000000000000000095020000636E782E786D6C504B0102
310
1400140006080800CC70623BA24EB22D72010000D40300000C00000000000000000000000000190300006662782F636F72652E786D6C504B01021400140006080800CC70623B408A7D3B7C0000009D0000000B00000000000000000000000000B50400006662782F636E782E786D6C504B01021400140006080800CC70623B
310
449FB9BD290100001202000031000000000000000000000000005A0500006662782F36394639363044362D344446342D343946362D394244322D3234314243333846323333332F636F72652E786D6C504B01021400140006080800CC70623BAD7543B64E010000330300003000000000000000000000000000D20600006662
310
782F36394639363044362D344446342D343946362D394244322D3234314243333846323333332F636E782E786D6C504B01021400140006080800CC70623B8D05915C650500003B10000034000000000000000000000000006E0800006662782F36394639363044362D344446342D343946362D394244322D32343142433338
310
46323333332F6F626A656374732E786D6C504B01021400140006080000CC70623B0000000000000000000000003500000000000000000000000000250E00006662782F36394639363044362D344446342D343946362D394244322D3234314243333846323333332F76657274696365732E62696E504B010214001400060808
310
00CC70623BF270F13306000000040000003600000000000000000000000000780E00006662782F36394639363044362D344446342D343946362D394244322D3234314243333846323333332F747269616E676C65732E62696E504B01021400140006080000CC70623B00000000000000000000000037000000000000000000
310
00000000D20E00006662782F36394639363044362D344446342D343946362D394244322D3234314243333846323333332F617474726962757465732E62696E504B01021400140006080800CC70623B08DA0BD190000000410100003600000000000000000000000000270F00006662782F36394639363044362D344446342D
310
343946362D394244322D3234314243333846323333332F6469726563746F72792E786D6C504B01021400140006080800CC70623BCA768048FE000000A00100003B000000000000000000000000000B1000006662782F36394639363044362D344446342D343946362D394244322D3234314243333846323333332F7265736F
310
75726365732F636F72652E786D6C504B0506000000000E000E0080040000621100000000
  0
XRECORD
  5
176
102
{ACAD_REACTORS
330
173
102
}
330
173
100
AcDbXrecord
280
     1
270
     1
271
     1
  0
XRECORD
  5
177
102
{ACAD_REACTORS
330
173
102
}
330
173
100
AcDbXrecord
280
     1
270
     1
271
     1
  0
XRECORD
  5
37EA
102
{ACAD_REACTORS
330
37E9
102
}
330
37E9
100
AcDbXrecord
280
     1
102
ACAD_ROUNDTRIP_2012_MLEADER_STYLE
298
     1
  0
XRECORD
  5
37FC
102
{ACAD_REACTORS
330
37FB
102
}
330
37FB
100
AcDbXrecord
280
     1
102
DISPLAYNAME
  1
Metric50
102
FLAGS
 90
        0
  0
CELLSTYLEMAP
  5
37BC
102
{ACAD_REACTORS
330
162
102
}
330
162
100
AcDbCellStyleMap
 90
        3
300
CELLSTYLE
  1
TABLEFORMAT_BEGIN
 90
        5
170
     1
 91
        0
 92
    32768
 62
   257
 93
        1
300
CONTENTFORMAT
  1
CONTENTFORMAT_BEGIN
 90
        0
 91
        0
 92
      512
 93
        0
300

 40
0.0
140
1.0
 94
        5
 62
     0
340
11
144
6.0
309
CONTENTFORMAT_END
171
     1
301
MARGIN
  1
CELLMARGIN_BEGIN
 40
1.5
 40
1.5
 40
1.5
 40
1.5
 40
4.5
 40
4.5
309
CELLMARGIN_END
 94
        6
 95
        1
302
GRIDFORMAT
  1
GRIDFORMAT_BEGIN
 90
        0
 91
        1
 62
     0
 92
       -2
340
14
 93
        0
 40
1.125
309
GRIDFORMAT_END
 95
        2
302
GRIDFORMAT
  1
GRIDFORMAT_BEGIN
 90
        0
 91
        1
 62
     0
 92
       -2
340
14
 93
        0
 40
1.125
309
GRIDFORMAT_END
 95
        4
302
GRIDFORMAT
  1
GRIDFORMAT_BEGIN
 90
        0
 91
        1
 62
     0
 92
       -2
340
14
 93
        0
 40
1.125
309
GRIDFORMAT_END
 95
        8
302
GRIDFORMAT
  1
GRIDFORMAT_BEGIN
 90
        0
 91
        1
 62
     0
 92
       -2
340
14
 93
        0
 40
1.125
309
GRIDFORMAT_END
 95
       16
302
GRIDFORMAT
  1
GRIDFORMAT_BEGIN
 90
        0
 91
        1
 62
     0
 92
       -2
340
14
 93
        0
 40
1.125
309
GRIDFORMAT_END
 95
       32
302
GRIDFORMAT
  1
GRIDFORMAT_BEGIN
 90
        0
 91
        1
 62
     0
 92
       -2
340
14
 93
        0
 40
1.125
309
GRIDFORMAT_END
309
TABLEFORMAT_END
  1
CELLSTYLE_BEGIN
 90
        1
 91
        1
300
_TITLE
309
CELLSTYLE_END
300
CELLSTYLE
  1
TABLEFORMAT_BEGIN
 90
        5
170
     1
 91
        0
 92
        0
 62
   257
 93
        1
300
CONTENTFORMAT
  1
CONTENTFORMAT_BEGIN
 90
        0
 91
        0
 92
      512
 93
        0
300

 40
0.0
140
1.0
 94
        5
 62
     0
340
11
144
4.5
309
CONTENTFORMAT_END
171
     1
301
MARGIN
  1
CELLMARGIN_BEGIN
 40
1.5
 40
1.5
 40
1.5
 40
1.5
 40
4.5
 40
4.5
309
CELLMARGIN_END
 94
        6
 95
        1
302
GRIDFORMAT
  1
GRIDFORMAT_BEGIN
 90
        0
 91
        1
 62
     0
 92
       -2
340
14
 93
        0
 40
1.125
309
GRIDFORMAT_END
 95
        2
302
GRIDFORMAT
  1
GRIDFORMAT_BEGIN
 90
        0
 91
        1
 62
     0
 92
       -2
340
14
 93
        0
 40
1.125
309
GRIDFORMAT_END
 95
        4
302
GRIDFORMAT
  1
GRIDFORMAT_BEGIN
 90
        0
 91
        1
 62
     0
 92
       -2
340
14
 93
        0
 40
1.125
309
GRIDFORMAT_END
 95
        8
302
GRIDFORMAT
  1
GRIDFORMAT_BEGIN
 90
        0
 91
        1
 62
     0
 92
       -2
340
14
 93
        0
 40
1.125
309
GRIDFORMAT_END
 95
       16
302
GRIDFORMAT
  1
GRIDFORMAT_BEGIN
 90
        0
 91
        1
 62
     0
 92
       -2
340
14
 93
        0
 40
1.125
309
GRIDFORMAT_END
 95
       32
302
GRIDFORMAT
  1
GRIDFORMAT_BEGIN
 90
        0
 91
        1
 62
     0
 92
       -2
340
14
 93
        0
 40
1.125
309
GRIDFORMAT_END
309
TABLEFORMAT_END
  1
CELLSTYLE_BEGIN
 90
        2
 91
        1
300
_HEADER
309
CELLSTYLE_END
300
CELLSTYLE
  1
TABLEFORMAT_BEGIN
 90
        5
170
     1
 91
        0
 92
        0
 62
   257
 93
        1
300
CONTENTFORMAT
  1
CONTENTFORMAT_BEGIN
 90
        0
 91
        0
 92
      512
 93
        0
300

 40
0.0
140
1.0
 94
        2
 62
     0
340
11
144
4.5
309
CONTENTFORMAT_END
171
     1
301
MARGIN
  1
CELLMARGIN_BEGIN
 40
1.5
 40
1.5
 40
1.5
 40
1.5
 40
4.5
 40
4.5
309
CELLMARGIN_END
 94
        6
 95
        1
302
GRIDFORMAT
  1
GRIDFORMAT_BEGIN
 90
        0
 91
        1
 62
     0
 92
       -2
340
14
 93
        0
 40
1.125
309
GRIDFORMAT_END
 95
        2
302
GRIDFORMAT
  1
GRIDFORMAT_BEGIN
 90
        0
 91
        1
 62
     0
 92
       -2
340
14
 93
        0
 40
1.125
309
GRIDFORMAT_END
 95
        4
302
GRIDFORMAT
  1
GRIDFORMAT_BEGIN
 90
        0
 91
        1
 62
     0
 92
       -2
340
14
 93
        0
 40
1.125
309
GRIDFORMAT_END
 95
        8
302
GRIDFORMAT
  1
GRIDFORMAT_BEGIN
 90
        0
 91
        1
 62
     0
 92
       -2
340
14
 93
        0
 40
1.125
309
GRIDFORMAT_END
 95
       16
302
GRIDFORMAT
  1
GRIDFORMAT_BEGIN
 90
        0
 91
        1
 62
     0
 92
       -2
340
14
 93
        0
 40
1.125
309
GRIDFORMAT_END
 95
       32
302
GRIDFORMAT
  1
GRIDFORMAT_BEGIN
 90
        0
 91
        1
 62
     0
 92
       -2
340
14
 93
        0
 40
1.125
309
GRIDFORMAT_END
309
TABLEFORMAT_END
  1
CELLSTYLE_BEGIN
 90
        3
 91
        2
300
_DATA
309
CELLSTYLE_END
  0
XRECORD
  5
37C1
102
{ACAD_REACTORS
330
162
102
}
330
162
100
AcDbXrecord
280
     1
102
ACAD_ROUNDTRIP_PRE2007_TABLESTYLE
 90
      512
 91
        0
  1

 92
      512
 93
        0
  2

 94
      512
 95
        0
  3

  0
XRECORD
  5
37D4
102
{ACAD_REACTORS
330
37D3
102
}
330
37D3
100
AcDbXrecord
280
     1
102
RTVSPost2010Prop28
280
     1
102
RTVSPost2010PropOp28
 70
     1
102
RTVSPost2010Prop29
280
     1
102
RTVSPost2010PropOp29
 70
     1
102
RTVSPost2010Prop30
280
     0
102
RTVSPost2010PropOp30
 70
     1
102
RTVSPost2010Prop31
280
     0
102
RTVSPost2010PropOp31
 70
     1
102
RTVSPost2010Prop32
280
     0
102
RTVSPost2010PropOp32
 70
     1
102
RTVSPost2010Prop33
280
     0
102
RTVSPost2010PropOp33
 70
     1
102
RTVSPost2010Prop34
280
     0
102
RTVSPost2010PropOp34
 70
     1
102
RTVSPost2010Prop35
280
     0
102
RTVSPost2010PropOp35
 70
     1
102
RTVSPost2010Prop36
280
     0
102
RTVSPost2010PropOp36
 70
     1
102
RTVSPost2010Prop37
 90
       50
102
RTVSPost2010PropOp37
 70
     1
102
RTVSPost2010Prop38
140
0.0
102
RTVSPost2010PropOp38
 70
     1
102
RTVSPost2010Prop39
140
1.0
102
RTVSPost2010PropOp39
 70
     1
102
RTVSPost2010Prop40
 90
        0
102
RTVSPost2010PropOp40
 70
     1
102
RTVSPost2010Prop41ColorIndex
 90
       18
102
RTVSPost2010Prop41ColorRGB
 90
        0
102
RTVSPost2010PropOp41
 70
     1
102
RTVSPost2010Prop42
 90
       50
102
RTVSPost2010PropOp42
 70
     1
102
RTVSPost2010Prop43
 90
        3
102
RTVSPost2010PropOp43
 70
     1
102
RTVSPost2010Prop44ColorIndex
 90
        5
102
RTVSPost2010Prop44ColorRGB
 90
      255
102
RTVSPost2010PropOp44
 70
     1
102
RTVSPost2010Prop45
280
     0
102
RTVSPost2010PropOp45
 70
     1
102
RTVSPost2010Prop46
 90
       50
102
RTVSPost2010PropOp46
 70
     1
102
RTVSPost2010Prop47
 90
       50
102
RTVSPost2010PropOp47
 70
     1
102
RTVSPost2010Prop48
 90
       50
102
RTVSPost2010PropOp48
 70
     1
102
RTVSPost2010Prop49
280
     0
102
RTVSPost2010PropOp49
 70
     1
102
RTVSPost2010Prop50
 90
       50
102
RTVSPost2010PropOp50
 70
     1
102
RTVSPost2010Prop51ColorIndex
 90
      256
102
RTVSPost2010Prop51ColorRGB
 90
-16777216
102
RTVSPost2010PropOp51
 70
     0
102
RTVSPost2010Prop52
140
1.0
102
RTVSPost2010PropOp52
 70
     0
102
RTVSPost2010Prop53
 90
        2
102
RTVSPost2010PropOp53
 70
     1
102
RTVSPost2010Prop54
  1
strokes_ogs.tif
102
RTVSPost2010PropOp54
 70
     1
102
RTVSPost2010Prop55
280
     0
102
RTVSPost2010PropOp55
 70
     1
102
RTVSPost2010Prop56
140
1.0
102
RTVSPost2010PropOp56
 70
     1
102
RTVSPost2010Prop57
140
1.0
102
RTVSPost2010PropOp57
 70
     1
102
RTVSPropertyOp0
 70
     1
102
RTVSPropertyOp1
 70
     1
102
RTVSPropertyOp2
 70
     1
102
RTVSPropertyOp3
 70
     1
102
RTVSPropertyOp4
 70
     1
102
RTVSPropertyOp5
 70
     1
102
RTVSPropertyOp6
 70
     1
102
RTVSPropertyOp7
 70
     1
102
RTVSPropertyOp8
 70
     1
102
RTVSPropertyOp9
 70
     1
102
RTVSPropertyOp10
 70
     1
102
RTVSPropertyOp11
 70
     1
102
RTVSPropertyOp12
 70
     1
102
RTVSPropertyOp13
 70
     1
102
RTVSPropertyOp14
 70
     1
102
RTVSPropertyOp15
 70
     1
102
RTVSPropertyOp16
 70
     1
102
RTVSPropertyOp17
 70
     1
102
RTVSPropertyOp18
 70
     1
102
RTVSPropertyOp19
 70
     1
102
RTVSPropertyOp20
 70
     1
102
RTVSPropertyOp21
 70
     1
102
RTVSPropertyOp22
 70
     1
102
RTVSPropertyOp23
 70
     1
102
RTVSPropertyOp24
 70
     1
102
RTVSPropertyOp25
 70
     1
102
RTVSPropertyOp26
 70
     1
102
RTVSPropertyOp27
 70
     1
102
RTVSPropertyOp28
 70
     1
102
RTVSPropertyOp29
 70
     1
102
RTVSPropertyOp30
 70
     1
102
RTVSPropertyOp31
 70
     1
102
RTVSPropertyOp32
 70
     1
102
RTVSPropertyOp33
 70
     1
102
RTVSPropertyOp34
 70
     1
102
RTVSPropertyOp35
 70
     1
102
RTVSPropertyOp36
 70
     1
102
RTVSPropertyOp37
 70
     1
102
RTVSPropertyOp38
 70
     1
102
RTVSPropertyOp39
 70
     1
102
RTVSPropertyOp40
 70
     1
102
RTVSPropertyOp41
 70
     1
102
RTVSPropertyOp42
 70
     1
102
RTVSPropertyOp43
 70
     1
102
RTVSPropertyOp44
 70
     1
102
RTVSPropertyOp45
 70
     1
102
RTVSPropertyOp46
 70
     1
102
RTVSPropertyOp47
 70
     1
102
RTVSPropertyOp48
 70
     1
102
RTVSPropertyOp49
 70
     1
102
RTVSPropertyOp50
 70
     1
102
RTVSPropertyOp51
 70
     0
102
RTVSPropertyOp52
 70
     0
102
RTVSPropertyOp53
 70
     1
102
RTVSPropertyOp54
 70
     1
102
RTVSPropertyOp55
 70
     1
102
RTVSPropertyOp56
 70
     1
102
RTVSPropertyOp57
 70
     1
102
RTVSPropertyOp58
 70
     1
102
RTVSPropertyOp59
 70
     1
102
RTVSPropertyOp60
 70
     1
102
RTVSPropertyOp61
 70
     1
102
RTVSPropertyOp62
 70
     1
  0
XRECORD
  5
37D2
102
{ACAD_REACTORS
330
37D1
102
}
330
37D1
100
AcDbXrecord
280
     1
102
RTVSPost2010Prop28
280
     0
102
RTVSPost2010PropOp28
 70
     1
102
RTVSPost2010Prop29
280
     1
102
RTVSPost2010PropOp29
 70
     1
102
RTVSPost2010Prop30
280
     1
102
RTVSPost2010PropOp30
 70
     1
102
RTVSPost2010Prop31
280
     0
102
RTVSPost2010PropOp31
 70
     1
102
RTVSPost2010Prop32
280
     0
102
RTVSPost2010PropOp32
 70
     1
102
RTVSPost2010Prop33
280
     0
102
RTVSPost2010PropOp33
 70
     1
102
RTVSPost2010Prop34
280
     0
102
RTVSPost2010PropOp34
 70
     1
102
RTVSPost2010Prop35
280
     0
102
RTVSPost2010PropOp35
 70
     1
102
RTVSPost2010Prop36
280
     0
102
RTVSPost2010PropOp36
 70
     1
102
RTVSPost2010Prop37
 90
       50
102
RTVSPost2010PropOp37
 70
     1
102
RTVSPost2010Prop38
140
0.0
102
RTVSPost2010PropOp38
 70
     1
102
RTVSPost2010Prop39
140
1.0
102
RTVSPost2010PropOp39
 70
     1
102
RTVSPost2010Prop40
 90
        0
102
RTVSPost2010PropOp40
 70
     1
102
RTVSPost2010Prop41ColorIndex
 90
       18
102
RTVSPost2010Prop41ColorRGB
 90
        0
102
RTVSPost2010PropOp41
 70
     1
102
RTVSPost2010Prop42
 90
       50
102
RTVSPost2010PropOp42
 70
     1
102
RTVSPost2010Prop43
 90
        3
102
RTVSPost2010PropOp43
 70
     1
102
RTVSPost2010Prop44ColorIndex
 90
        5
102
RTVSPost2010Prop44ColorRGB
 90
      255
102
RTVSPost2010PropOp44
 70
     1
102
RTVSPost2010Prop45
280
     0
102
RTVSPost2010PropOp45
 70
     1
102
RTVSPost2010Prop46
 90
       50
102
RTVSPost2010PropOp46
 70
     1
102
RTVSPost2010Prop47
 90
       50
102
RTVSPost2010PropOp47
 70
     1
102
RTVSPost2010Prop48
 90
       50
102
RTVSPost2010PropOp48
 70
     1
102
RTVSPost2010Prop49
280
     0
102
RTVSPost2010PropOp49
 70
     1
102
RTVSPost2010Prop50
 90
       50
102
RTVSPost2010PropOp50
 70
     1
102
RTVSPost2010Prop51ColorIndex
 90
      256
102
RTVSPost2010Prop51ColorRGB
 90
-16777216
102
RTVSPost2010PropOp51
 70
     0
102
RTVSPost2010Prop52
140
1.0
102
RTVSPost2010PropOp52
 70
     0
102
RTVSPost2010Prop53
 90
        2
102
RTVSPost2010PropOp53
 70
     1
102
RTVSPost2010Prop54
  1
strokes_ogs.tif
102
RTVSPost2010PropOp54
 70
     1
102
RTVSPost2010Prop55
280
     0
102
RTVSPost2010PropOp55
 70
     1
102
RTVSPost2010Prop56
140
1.0
102
RTVSPost2010PropOp56
 70
     1
102
RTVSPost2010Prop57
140
1.0
102
RTVSPost2010PropOp57
 70
     1
102
RTVSPropertyOp0
 70
     1
102
RTVSPropertyOp1
 70
     1
102
RTVSPropertyOp2
 70
     1
102
RTVSPropertyOp3
 70
     1
102
RTVSPropertyOp4
 70
     1
102
RTVSPropertyOp5
 70
     1
102
RTVSPropertyOp6
 70
     1
102
RTVSPropertyOp7
 70
     1
102
RTVSPropertyOp8
 70
     1
102
RTVSPropertyOp9
 70
     1
102
RTVSPropertyOp10
 70
     1
102
RTVSPropertyOp11
 70
     1
102
RTVSPropertyOp12
 70
     1
102
RTVSPropertyOp13
 70
     1
102
RTVSPropertyOp14
 70
     1
102
RTVSPropertyOp15
 70
     1
102
RTVSPropertyOp16
 70
     1
102
RTVSPropertyOp17
 70
     1
102
RTVSPropertyOp18
 70
     1
102
RTVSPropertyOp19
 70
     1
102
RTVSPropertyOp20
 70
     1
102
RTVSPropertyOp21
 70
     1
102
RTVSPropertyOp22
 70
     1
102
RTVSPropertyOp23
 70
     1
102
RTVSPropertyOp24
 70
     1
102
RTVSPropertyOp25
 70
     1
102
RTVSPropertyOp26
 70
     1
102
RTVSPropertyOp27
 70
     1
102
RTVSPropertyOp28
 70
     1
102
RTVSPropertyOp29
 70
     1
102
RTVSPropertyOp30
 70
     1
102
RTVSPropertyOp31
 70
     1
102
RTVSPropertyOp32
 70
     1
102
RTVSPropertyOp33
 70
     1
102
RTVSPropertyOp34
 70
     1
102
RTVSPropertyOp35
 70
     1
102
RTVSPropertyOp36
 70
     1
102
RTVSPropertyOp37
 70
     1
102
RTVSPropertyOp38
 70
     1
102
RTVSPropertyOp39
 70
     1
102
RTVSPropertyOp40
 70
     1
102
RTVSPropertyOp41
 70
     1
102
RTVSPropertyOp42
 70
     1
102
RTVSPropertyOp43
 70
     1
102
RTVSPropertyOp44
 70
     1
102
RTVSPropertyOp45
 70
     1
102
RTVSPropertyOp46
 70
     1
102
RTVSPropertyOp47
 70
     1
102
RTVSPropertyOp48
 70
     1
102
RTVSPropertyOp49
 70
     1
102
RTVSPropertyOp50
 70
     1
102
RTVSPropertyOp51
 70
     0
102
RTVSPropertyOp52
 70
     0
102
RTVSPropertyOp53
 70
     1
102
RTVSPropertyOp54
 70
     1
102
RTVSPropertyOp55
 70
     1
102
RTVSPropertyOp56
 70
     1
102
RTVSPropertyOp57
 70
     1
102
RTVSPropertyOp58
 70
     1
102
RTVSPropertyOp59
 70
     1
102
RTVSPropertyOp60
 70
     1
102
RTVSPropertyOp61
 70
     1
102
RTVSPropertyOp62
 70
     1
  0
XRECORD
  5
37E0
102
{ACAD_REACTORS
330
37DF
102
}
330
37DF
100
AcDbXrecord
280
     1
102
RTVSPost2010Prop28
280
     0
102
RTVSPost2010PropOp28
 70
     1
102
RTVSPost2010Prop29
280
     1
102
RTVSPost2010PropOp29
 70
     1
102
RTVSPost2010Prop30
280
     1
102
RTVSPost2010PropOp30
 70
     1
102
RTVSPost2010Prop31
280
     0
102
RTVSPost2010PropOp31
 70
     1
102
RTVSPost2010Prop32
280
     0
102
RTVSPost2010PropOp32
 70
     1
102
RTVSPost2010Prop33
280
     0
102
RTVSPost2010PropOp33
 70
     1
102
RTVSPost2010Prop34
280
     0
102
RTVSPost2010PropOp34
 70
     1
102
RTVSPost2010Prop35
280
     0
102
RTVSPost2010PropOp35
 70
     1
102
RTVSPost2010Prop36
280
     0
102
RTVSPost2010PropOp36
 70
     1
102
RTVSPost2010Prop37
 90
       50
102
RTVSPost2010PropOp37
 70
     1
102
RTVSPost2010Prop38
140
0.0
102
RTVSPost2010PropOp38
 70
     1
102
RTVSPost2010Prop39
140
1.0
102
RTVSPost2010PropOp39
 70
     1
102
RTVSPost2010Prop40
 90
        0
102
RTVSPost2010PropOp40
 70
     1
102
RTVSPost2010Prop41ColorIndex
 90
       18
102
RTVSPost2010Prop41ColorRGB
 90
        0
102
RTVSPost2010PropOp41
 70
     1
102
RTVSPost2010Prop42
 90
       50
102
RTVSPost2010PropOp42
 70
     1
102
RTVSPost2010Prop43
 90
        3
102
RTVSPost2010PropOp43
 70
     1
102
RTVSPost2010Prop44ColorIndex
 90
        5
102
RTVSPost2010Prop44ColorRGB
 90
      255
102
RTVSPost2010PropOp44
 70
     1
102
RTVSPost2010Prop45
280
     0
102
RTVSPost2010PropOp45
 70
     1
102
RTVSPost2010Prop46
 90
       50
102
RTVSPost2010PropOp46
 70
     1
102
RTVSPost2010Prop47
 90
       50
102
RTVSPost2010PropOp47
 70
     1
102
RTVSPost2010Prop48
 90
       50
102
RTVSPost2010PropOp48
 70
     1
102
RTVSPost2010Prop49
280
     0
102
RTVSPost2010PropOp49
 70
     1
102
RTVSPost2010Prop50
 90
       50
102
RTVSPost2010PropOp50
 70
     1
102
RTVSPost2010Prop51ColorIndex
 90
      256
102
RTVSPost2010Prop51ColorRGB
 90
-16777216
102
RTVSPost2010PropOp51
 70
     0
102
RTVSPost2010Prop52
140
1.0
102
RTVSPost2010PropOp52
 70
     0
102
RTVSPost2010Prop53
 90
        2
102
RTVSPost2010PropOp53
 70
     1
102
RTVSPost2010Prop54
  1
strokes_ogs.tif
102
RTVSPost2010PropOp54
 70
     1
102
RTVSPost2010Prop55
280
     0
102
RTVSPost2010PropOp55
 70
     1
102
RTVSPost2010Prop56
140
1.0
102
RTVSPost2010PropOp56
 70
     1
102
RTVSPost2010Prop57
140
1.0
102
RTVSPost2010PropOp57
 70
     1
102
RTVSPropertyOp0
 70
     1
102
RTVSPropertyOp1
 70
     1
102
RTVSPropertyOp2
 70
     1
102
RTVSPropertyOp3
 70
     1
102
RTVSPropertyOp4
 70
     1
102
RTVSPropertyOp5
 70
     1
102
RTVSPropertyOp6
 70
     1
102
RTVSPropertyOp7
 70
     1
102
RTVSPropertyOp8
 70
     1
102
RTVSPropertyOp9
 70
     1
102
RTVSPropertyOp10
 70
     1
102
RTVSPropertyOp11
 70
     1
102
RTVSPropertyOp12
 70
     1
102
RTVSPropertyOp13
 70
     1
102
RTVSPropertyOp14
 70
     1
102
RTVSPropertyOp15
 70
     1
102
RTVSPropertyOp16
 70
     1
102
RTVSPropertyOp17
 70
     1
102
RTVSPropertyOp18
 70
     1
102
RTVSPropertyOp19
 70
     1
102
RTVSPropertyOp20
 70
     1
102
RTVSPropertyOp21
 70
     1
102
RTVSPropertyOp22
 70
     1
102
RTVSPropertyOp23
 70
     1
102
RTVSPropertyOp24
 70
     1
102
RTVSPropertyOp25
 70
     1
102
RTVSPropertyOp26
 70
     1
102
RTVSPropertyOp27
 70
     1
102
RTVSPropertyOp28
 70
     1
102
RTVSPropertyOp29
 70
     1
102
RTVSPropertyOp30
 70
     1
102
RTVSPropertyOp31
 70
     1
102
RTVSPropertyOp32
 70
     1
102
RTVSPropertyOp33
 70
     1
102
RTVSPropertyOp34
 70
     1
102
RTVSPropertyOp35
 70
     1
102
RTVSPropertyOp36
 70
     1
102
RTVSPropertyOp37
 70
     1
102
RTVSPropertyOp38
 70
     1
102
RTVSPropertyOp39
 70
     1
102
RTVSPropertyOp40
 70
     1
102
RTVSPropertyOp41
 70
     1
102
RTVSPropertyOp42
 70
     1
102
RTVSPropertyOp43
 70
     1
102
RTVSPropertyOp44
 70
     1
102
RTVSPropertyOp45
 70
     1
102
RTVSPropertyOp46
 70
     1
102
RTVSPropertyOp47
 70
     1
102
RTVSPropertyOp48
 70
     1
102
RTVSPropertyOp49
 70
     1
102
RTVSPropertyOp50
 70
     1
102
RTVSPropertyOp51
 70
     0
102
RTVSPropertyOp52
 70
     0
102
RTVSPropertyOp53
 70
     1
102
RTVSPropertyOp54
 70
     1
102
RTVSPropertyOp55
 70
     1
102
RTVSPropertyOp56
 70
     1
102
RTVSPropertyOp57
 70
     1
102
RTVSPropertyOp58
 70
     1
102
RTVSPropertyOp59
 70
     1
102
RTVSPropertyOp60
 70
     1
102
RTVSPropertyOp61
 70
     1
102
RTVSPropertyOp62
 70
     1
  0
XRECORD
  5
37E8
102
{ACAD_REACTORS
330
37E7
102
}
330
37E7
100
AcDbXrecord
280
     1
102
RTVSPost2010Prop28
280
     0
102
RTVSPost2010PropOp28
 70
     1
102
RTVSPost2010Prop29
280
     1
102
RTVSPost2010PropOp29
 70
     1
102
RTVSPost2010Prop30
280
     1
102
RTVSPost2010PropOp30
 70
     1
102
RTVSPost2010Prop31
280
     0
102
RTVSPost2010PropOp31
 70
     1
102
RTVSPost2010Prop32
280
     0
102
RTVSPost2010PropOp32
 70
     1
102
RTVSPost2010Prop33
280
     0
102
RTVSPost2010PropOp33
 70
     1
102
RTVSPost2010Prop34
280
     0
102
RTVSPost2010PropOp34
 70
     1
102
RTVSPost2010Prop35
280
     0
102
RTVSPost2010PropOp35
 70
     1
102
RTVSPost2010Prop36
280
     0
102
RTVSPost2010PropOp36
 70
     1
102
RTVSPost2010Prop37
 90
       50
102
RTVSPost2010PropOp37
 70
     1
102
RTVSPost2010Prop38
140
0.0
102
RTVSPost2010PropOp38
 70
     1
102
RTVSPost2010Prop39
140
1.0
102
RTVSPost2010PropOp39
 70
     1
102
RTVSPost2010Prop40
 90
        0
102
RTVSPost2010PropOp40
 70
     1
102
RTVSPost2010Prop41ColorIndex
 90
       18
102
RTVSPost2010Prop41ColorRGB
 90
        0
102
RTVSPost2010PropOp41
 70
     1
102
RTVSPost2010Prop42
 90
       50
102
RTVSPost2010PropOp42
 70
     1
102
RTVSPost2010Prop43
 90
        3
102
RTVSPost2010PropOp43
 70
     1
102
RTVSPost2010Prop44ColorIndex
 90
        5
102
RTVSPost2010Prop44ColorRGB
 90
      255
102
RTVSPost2010PropOp44
 70
     1
102
RTVSPost2010Prop45
280
     0
102
RTVSPost2010PropOp45
 70
     1
102
RTVSPost2010Prop46
 90
       50
102
RTVSPost2010PropOp46
 70
     1
102
RTVSPost2010Prop47
 90
       50
102
RTVSPost2010PropOp47
 70
     1
102
RTVSPost2010Prop48
 90
       50
102
RTVSPost2010PropOp48
 70
     1
102
RTVSPost2010Prop49
280
     0
102
RTVSPost2010PropOp49
 70
     1
102
RTVSPost2010Prop50
 90
       50
102
RTVSPost2010PropOp50
 70
     1
102
RTVSPost2010Prop51ColorIndex
 90
      256
102
RTVSPost2010Prop51ColorRGB
 90
-16777216
102
RTVSPost2010PropOp51
 70
     0
102
RTVSPost2010Prop52
140
1.0
102
RTVSPost2010PropOp52
 70
     0
102
RTVSPost2010Prop53
 90
        2
102
RTVSPost2010PropOp53
 70
     1
102
RTVSPost2010Prop54
  1
strokes_ogs.tif
102
RTVSPost2010PropOp54
 70
     1
102
RTVSPost2010Prop55
280
     0
102
RTVSPost2010PropOp55
 70
     1
102
RTVSPost2010Prop56
140
1.0
102
RTVSPost2010PropOp56
 70
     1
102
RTVSPost2010Prop57
140
1.0
102
RTVSPost2010PropOp57
 70
     1
102
RTVSPropertyOp0
 70
     1
102
RTVSPropertyOp1
 70
     1
102
RTVSPropertyOp2
 70
     1
102
RTVSPropertyOp3
 70
     1
102
RTVSPropertyOp4
 70
     1
102
RTVSPropertyOp5
 70
     1
102
RTVSPropertyOp6
 70
     1
102
RTVSPropertyOp7
 70
     1
102
RTVSPropertyOp8
 70
     1
102
RTVSPropertyOp9
 70
     1
102
RTVSPropertyOp10
 70
     1
102
RTVSPropertyOp11
 70
     1
102
RTVSPropertyOp12
 70
     1
102
RTVSPropertyOp13
 70
     1
102
RTVSPropertyOp14
 70
     1
102
RTVSPropertyOp15
 70
     1
102
RTVSPropertyOp16
 70
     1
102
RTVSPropertyOp17
 70
     1
102
RTVSPropertyOp18
 70
     1
102
RTVSPropertyOp19
 70
     1
102
RTVSPropertyOp20
 70
     1
102
RTVSPropertyOp21
 70
     1
102
RTVSPropertyOp22
 70
     1
102
RTVSPropertyOp23
 70
     1
102
RTVSPropertyOp24
 70
     1
102
RTVSPropertyOp25
 70
     1
102
RTVSPropertyOp26
 70
     1
102
RTVSPropertyOp27
 70
     1
102
RTVSPropertyOp28
 70
     1
102
RTVSPropertyOp29
 70
     1
102
RTVSPropertyOp30
 70
     1
102
RTVSPropertyOp31
 70
     1
102
RTVSPropertyOp32
 70
     1
102
RTVSPropertyOp33
 70
     1
102
RTVSPropertyOp34
 70
     1
102
RTVSPropertyOp35
 70
     1
102
RTVSPropertyOp36
 70
     1
102
RTVSPropertyOp37
 70
     1
102
RTVSPropertyOp38
 70
     1
102
RTVSPropertyOp39
 70
     1
102
RTVSPropertyOp40
 70
     1
102
RTVSPropertyOp41
 70
     1
102
RTVSPropertyOp42
 70
     1
102
RTVSPropertyOp43
 70
     1
102
RTVSPropertyOp44
 70
     1
102
RTVSPropertyOp45
 70
     1
102
RTVSPropertyOp46
 70
     1
102
RTVSPropertyOp47
 70
     1
102
RTVSPropertyOp48
 70
     1
102
RTVSPropertyOp49
 70
     1
102
RTVSPropertyOp50
 70
     1
102
RTVSPropertyOp51
 70
     0
102
RTVSPropertyOp52
 70
     0
102
RTVSPropertyOp53
 70
     1
102
RTVSPropertyOp54
 70
     1
102
RTVSPropertyOp55
 70
     1
102
RTVSPropertyOp56
 70
     1
102
RTVSPropertyOp57
 70
     1
102
RTVSPropertyOp58
 70
     1
102
RTVSPropertyOp59
 70
     1
102
RTVSPropertyOp60
 70
     1
102
RTVSPropertyOp61
 70
     1
102
RTVSPropertyOp62
 70
     1
  0
XRECORD
  5
37DA
102
{ACAD_REACTORS
330
37D9
102
}
330
37D9
100
AcDbXrecord
280
     1
102
RTVSPost2010Prop28
280
     0
102
RTVSPost2010PropOp28
 70
     1
102
RTVSPost2010Prop29
280
     1
102
RTVSPost2010PropOp29
 70
     1
102
RTVSPost2010Prop30
280
     1
102
RTVSPost2010PropOp30
 70
     1
102
RTVSPost2010Prop31
280
     0
102
RTVSPost2010PropOp31
 70
     1
102
RTVSPost2010Prop32
280
     0
102
RTVSPost2010PropOp32
 70
     1
102
RTVSPost2010Prop33
280
     0
102
RTVSPost2010PropOp33
 70
     1
102
RTVSPost2010Prop34
280
     0
102
RTVSPost2010PropOp34
 70
     1
102
RTVSPost2010Prop35
280
     0
102
RTVSPost2010PropOp35
 70
     1
102
RTVSPost2010Prop36
280
     0
102
RTVSPost2010PropOp36
 70
     1
102
RTVSPost2010Prop37
 90
       50
102
RTVSPost2010PropOp37
 70
     1
102
RTVSPost2010Prop38
140
0.0
102
RTVSPost2010PropOp38
 70
     1
102
RTVSPost2010Prop39
140
1.0
102
RTVSPost2010PropOp39
 70
     1
102
RTVSPost2010Prop40
 90
        0
102
RTVSPost2010PropOp40
 70
     1
102
RTVSPost2010Prop41ColorIndex
 90
       18
102
RTVSPost2010Prop41ColorRGB
 90
        0
102
RTVSPost2010PropOp41
 70
     1
102
RTVSPost2010Prop42
 90
       50
102
RTVSPost2010PropOp42
 70
     1
102
RTVSPost2010Prop43
 90
        3
102
RTVSPost2010PropOp43
 70
     1
102
RTVSPost2010Prop44ColorIndex
 90
        5
102
RTVSPost2010Prop44ColorRGB
 90
      255
102
RTVSPost2010PropOp44
 70
     1
102
RTVSPost2010Prop45
280
     0
102
RTVSPost2010PropOp45
 70
     1
102
RTVSPost2010Prop46
 90
       50
102
RTVSPost2010PropOp46
 70
     1
102
RTVSPost2010Prop47
 90
       50
102
RTVSPost2010PropOp47
 70
     1
102
RTVSPost2010Prop48
 90
       50
102
RTVSPost2010PropOp48
 70
     1
102
RTVSPost2010Prop49
280
     0
102
RTVSPost2010PropOp49
 70
     1
102
RTVSPost2010Prop50
 90
       50
102
RTVSPost2010PropOp50
 70
     1
102
RTVSPost2010Prop51ColorIndex
 90
      256
102
RTVSPost2010Prop51ColorRGB
 90
-16777216
102
RTVSPost2010PropOp51
 70
     0
102
RTVSPost2010Prop52
140
1.0
102
RTVSPost2010PropOp52
 70
     0
102
RTVSPost2010Prop53
 90
        2
102
RTVSPost2010PropOp53
 70
     1
102
RTVSPost2010Prop54
  1
strokes_ogs.tif
102
RTVSPost2010PropOp54
 70
     1
102
RTVSPost2010Prop55
280
     0
102
RTVSPost2010PropOp55
 70
     1
102
RTVSPost2010Prop56
140
1.0
102
RTVSPost2010PropOp56
 70
     1
102
RTVSPost2010Prop57
140
1.0
102
RTVSPost2010PropOp57
 70
     1
102
RTVSPropertyOp0
 70
     1
102
RTVSPropertyOp1
 70
     1
102
RTVSPropertyOp2
 70
     1
102
RTVSPropertyOp3
 70
     1
102
RTVSPropertyOp4
 70
     1
102
RTVSPropertyOp5
 70
     1
102
RTVSPropertyOp6
 70
     1
102
RTVSPropertyOp7
 70
     1
102
RTVSPropertyOp8
 70
     1
102
RTVSPropertyOp9
 70
     1
102
RTVSPropertyOp10
 70
     1
102
RTVSPropertyOp11
 70
     1
102
RTVSPropertyOp12
 70
     1
102
RTVSPropertyOp13
 70
     1
102
RTVSPropertyOp14
 70
     1
102
RTVSPropertyOp15
 70
     1
102
RTVSPropertyOp16
 70
     1
102
RTVSPropertyOp17
 70
     1
102
RTVSPropertyOp18
 70
     1
102
RTVSPropertyOp19
 70
     1
102
RTVSPropertyOp20
 70
     1
102
RTVSPropertyOp21
 70
     1
102
RTVSPropertyOp22
 70
     1
102
RTVSPropertyOp23
 70
     1
102
RTVSPropertyOp24
 70
     1
102
RTVSPropertyOp25
 70
     1
102
RTVSPropertyOp26
 70
     1
102
RTVSPropertyOp27
 70
     1
102
RTVSPropertyOp28
 70
     1
102
RTVSPropertyOp29
 70
     1
102
RTVSPropertyOp30
 70
     1
102
RTVSPropertyOp31
 70
     1
102
RTVSPropertyOp32
 70
     1
102
RTVSPropertyOp33
 70
     1
102
RTVSPropertyOp34
 70
     1
102
RTVSPropertyOp35
 70
     1
102
RTVSPropertyOp36
 70
     1
102
RTVSPropertyOp37
 70
     1
102
RTVSPropertyOp38
 70
     1
102
RTVSPropertyOp39
 70
     1
102
RTVSPropertyOp40
 70
     1
102
RTVSPropertyOp41
 70
     1
102
RTVSPropertyOp42
 70
     1
102
RTVSPropertyOp43
 70
     1
102
RTVSPropertyOp44
 70
     1
102
RTVSPropertyOp45
 70
     1
102
RTVSPropertyOp46
 70
     1
102
RTVSPropertyOp47
 70
     1
102
RTVSPropertyOp48
 70
     1
102
RTVSPropertyOp49
 70
     1
102
RTVSPropertyOp50
 70
     1
102
RTVSPropertyOp51
 70
     0
102
RTVSPropertyOp52
 70
     0
102
RTVSPropertyOp53
 70
     1
102
RTVSPropertyOp54
 70
     1
102
RTVSPropertyOp55
 70
     1
102
RTVSPropertyOp56
 70
     1
102
RTVSPropertyOp57
 70
     1
102
RTVSPropertyOp58
 70
     1
102
RTVSPropertyOp59
 70
     1
102
RTVSPropertyOp60
 70
     1
102
RTVSPropertyOp61
 70
     1
102
RTVSPropertyOp62
 70
     1
  0
XRECORD
  5
37DE
102
{ACAD_REACTORS
330
37DD
102
}
330
37DD
100
AcDbXrecord
280
     1
102
RTVSPost2010Prop28
280
     0
102
RTVSPost2010PropOp28
 70
     1
102
RTVSPost2010Prop29
280
     1
102
RTVSPost2010PropOp29
 70
     1
102
RTVSPost2010Prop30
280
     1
102
RTVSPost2010PropOp30
 70
     1
102
RTVSPost2010Prop31
280
     0
102
RTVSPost2010PropOp31
 70
     1
102
RTVSPost2010Prop32
280
     0
102
RTVSPost2010PropOp32
 70
     1
102
RTVSPost2010Prop33
280
     0
102
RTVSPost2010PropOp33
 70
     1
102
RTVSPost2010Prop34
280
     0
102
RTVSPost2010PropOp34
 70
     1
102
RTVSPost2010Prop35
280
     0
102
RTVSPost2010PropOp35
 70
     1
102
RTVSPost2010Prop36
280
     0
102
RTVSPost2010PropOp36
 70
     1
102
RTVSPost2010Prop37
 90
       50
102
RTVSPost2010PropOp37
 70
     1
102
RTVSPost2010Prop38
140
0.0
102
RTVSPost2010PropOp38
 70
     1
102
RTVSPost2010Prop39
140
1.0
102
RTVSPost2010PropOp39
 70
     1
102
RTVSPost2010Prop40
 90
        0
102
RTVSPost2010PropOp40
 70
     1
102
RTVSPost2010Prop41ColorIndex
 90
       18
102
RTVSPost2010Prop41ColorRGB
 90
        0
102
RTVSPost2010PropOp41
 70
     1
102
RTVSPost2010Prop42
 90
       50
102
RTVSPost2010PropOp42
 70
     1
102
RTVSPost2010Prop43
 90
        3
102
RTVSPost2010PropOp43
 70
     1
102
RTVSPost2010Prop44ColorIndex
 90
        5
102
RTVSPost2010Prop44ColorRGB
 90
      255
102
RTVSPost2010PropOp44
 70
     1
102
RTVSPost2010Prop45
280
     0
102
RTVSPost2010PropOp45
 70
     1
102
RTVSPost2010Prop46
 90
       50
102
RTVSPost2010PropOp46
 70
     1
102
RTVSPost2010Prop47
 90
       50
102
RTVSPost2010PropOp47
 70
     1
102
RTVSPost2010Prop48
 90
       50
102
RTVSPost2010PropOp48
 70
     1
102
RTVSPost2010Prop49
280
     0
102
RTVSPost2010PropOp49
 70
     1
102
RTVSPost2010Prop50
 90
       50
102
RTVSPost2010PropOp50
 70
     1
102
RTVSPost2010Prop51ColorIndex
 90
      256
102
RTVSPost2010Prop51ColorRGB
 90
-16777216
102
RTVSPost2010PropOp51
 70
     0
102
RTVSPost2010Prop52
140
1.0
102
RTVSPost2010PropOp52
 70
     0
102
RTVSPost2010Prop53
 90
        2
102
RTVSPost2010PropOp53
 70
     1
102
RTVSPost2010Prop54
  1
strokes_ogs.tif
102
RTVSPost2010PropOp54
 70
     1
102
RTVSPost2010Prop55
280
     0
102
RTVSPost2010PropOp55
 70
     1
102
RTVSPost2010Prop56
140
1.0
102
RTVSPost2010PropOp56
 70
     1
102
RTVSPost2010Prop57
140
1.0
102
RTVSPost2010PropOp57
 70
     1
102
RTVSPropertyOp0
 70
     1
102
RTVSPropertyOp1
 70
     1
102
RTVSPropertyOp2
 70
     1
102
RTVSPropertyOp3
 70
     1
102
RTVSPropertyOp4
 70
     1
102
RTVSPropertyOp5
 70
     1
102
RTVSPropertyOp6
 70
     1
102
RTVSPropertyOp7
 70
     1
102
RTVSPropertyOp8
 70
     1
102
RTVSPropertyOp9
 70
     1
102
RTVSPropertyOp10
 70
     1
102
RTVSPropertyOp11
 70
     1
102
RTVSPropertyOp12
 70
     1
102
RTVSPropertyOp13
 70
     1
102
RTVSPropertyOp14
 70
     1
102
RTVSPropertyOp15
 70
     1
102
RTVSPropertyOp16
 70
     1
102
RTVSPropertyOp17
 70
     1
102
RTVSPropertyOp18
 70
     1
102
RTVSPropertyOp19
 70
     1
102
RTVSPropertyOp20
 70
     1
102
RTVSPropertyOp21
 70
     1
102
RTVSPropertyOp22
 70
     1
102
RTVSPropertyOp23
 70
     1
102
RTVSPropertyOp24
 70
     1
102
RTVSPropertyOp25
 70
     1
102
RTVSPropertyOp26
 70
     1
102
RTVSPropertyOp27
 70
     1
102
RTVSPropertyOp28
 70
     1
102
RTVSPropertyOp29
 70
     1
102
RTVSPropertyOp30
 70
     1
102
RTVSPropertyOp31
 70
     1
102
RTVSPropertyOp32
 70
     1
102
RTVSPropertyOp33
 70
     1
102
RTVSPropertyOp34
 70
     1
102
RTVSPropertyOp35
 70
     1
102
RTVSPropertyOp36
 70
     1
102
RTVSPropertyOp37
 70
     1
102
RTVSPropertyOp38
 70
     1
102
RTVSPropertyOp39
 70
     1
102
RTVSPropertyOp40
 70
     1
102
RTVSPropertyOp41
 70
     1
102
RTVSPropertyOp42
 70
     1
102
RTVSPropertyOp43
 70
     1
102
RTVSPropertyOp44
 70
     1
102
RTVSPropertyOp45
 70
     1
102
RTVSPropertyOp46
 70
     1
102
RTVSPropertyOp47
 70
     1
102
RTVSPropertyOp48
 70
     1
102
RTVSPropertyOp49
 70
     1
102
RTVSPropertyOp50
 70
     1
102
RTVSPropertyOp51
 70
     0
102
RTVSPropertyOp52
 70
     0
102
RTVSPropertyOp53
 70
     1
102
RTVSPropertyOp54
 70
     1
102
RTVSPropertyOp55
 70
     1
102
RTVSPropertyOp56
 70
     1
102
RTVSPropertyOp57
 70
     1
102
RTVSPropertyOp58
 70
     1
102
RTVSPropertyOp59
 70
     1
102
RTVSPropertyOp60
 70
     1
102
RTVSPropertyOp61
 70
     1
102
RTVSPropertyOp62
 70
     1
  0
XRECORD
  5
37F0
102
{ACAD_REACTORS
330
37EF
102
}
330
37EF
100
AcDbXrecord
280
     1
102
RTVSPost2010Prop28
280
     0
102
RTVSPost2010PropOp28
 70
     1
102
RTVSPost2010Prop29
280
     1
102
RTVSPost2010PropOp29
 70
     1
102
RTVSPost2010Prop30
280
     1
102
RTVSPost2010PropOp30
 70
     1
102
RTVSPost2010Prop31
280
     0
102
RTVSPost2010PropOp31
 70
     1
102
RTVSPost2010Prop32
280
     0
102
RTVSPost2010PropOp32
 70
     1
102
RTVSPost2010Prop33
280
     0
102
RTVSPost2010PropOp33
 70
     1
102
RTVSPost2010Prop34
280
     0
102
RTVSPost2010PropOp34
 70
     1
102
RTVSPost2010Prop35
280
     0
102
RTVSPost2010PropOp35
 70
     1
102
RTVSPost2010Prop36
280
     0
102
RTVSPost2010PropOp36
 70
     1
102
RTVSPost2010Prop37
 90
       50
102
RTVSPost2010PropOp37
 70
     1
102
RTVSPost2010Prop38
140
0.0
102
RTVSPost2010PropOp38
 70
     1
102
RTVSPost2010Prop39
140
1.0
102
RTVSPost2010PropOp39
 70
     1
102
RTVSPost2010Prop40
 90
        0
102
RTVSPost2010PropOp40
 70
     1
102
RTVSPost2010Prop41ColorIndex
 90
       18
102
RTVSPost2010Prop41ColorRGB
 90
        0
102
RTVSPost2010PropOp41
 70
     1
102
RTVSPost2010Prop42
 90
       50
102
RTVSPost2010PropOp42
 70
     1
102
RTVSPost2010Prop43
 90
        3
102
RTVSPost2010PropOp43
 70
     1
102
RTVSPost2010Prop44ColorIndex
 90
        5
102
RTVSPost2010Prop44ColorRGB
 90
      255
102
RTVSPost2010PropOp44
 70
     1
102
RTVSPost2010Prop45
280
     0
102
RTVSPost2010PropOp45
 70
     1
102
RTVSPost2010Prop46
 90
       50
102
RTVSPost2010PropOp46
 70
     1
102
RTVSPost2010Prop47
 90
       50
102
RTVSPost2010PropOp47
 70
     1
102
RTVSPost2010Prop48
 90
       50
102
RTVSPost2010PropOp48
 70
     1
102
RTVSPost2010Prop49
280
     0
102
RTVSPost2010PropOp49
 70
     1
102
RTVSPost2010Prop50
 90
       50
102
RTVSPost2010PropOp50
 70
     1
102
RTVSPost2010Prop51ColorIndex
 90
      256
102
RTVSPost2010Prop51ColorRGB
 90
-16777216
102
RTVSPost2010PropOp51
 70
     0
102
RTVSPost2010Prop52
140
1.0
102
RTVSPost2010PropOp52
 70
     0
102
RTVSPost2010Prop53
 90
        2
102
RTVSPost2010PropOp53
 70
     1
102
RTVSPost2010Prop54
  1
strokes_ogs.tif
102
RTVSPost2010PropOp54
 70
     1
102
RTVSPost2010Prop55
280
     0
102
RTVSPost2010PropOp55
 70
     1
102
RTVSPost2010Prop56
140
1.0
102
RTVSPost2010PropOp56
 70
     1
102
RTVSPost2010Prop57
140
1.0
102
RTVSPost2010PropOp57
 70
     1
102
RTVSPropertyOp0
 70
     0
102
RTVSPropertyOp1
 70
     0
102
RTVSPropertyOp2
 70
     0
102
RTVSPropertyOp3
 70
     0
102
RTVSPropertyOp4
 70
     0
102
RTVSPropertyOp5
 70
     0
102
RTVSPropertyOp6
 70
     0
102
RTVSPropertyOp7
 70
     0
102
RTVSPropertyOp8
 70
     0
102
RTVSPropertyOp9
 70
     0
102
RTVSPropertyOp10
 70
     0
102
RTVSPropertyOp11
 70
     0
102
RTVSPropertyOp12
 70
     0
102
RTVSPropertyOp13
 70
     0
102
RTVSPropertyOp14
 70
     2
102
RTVSPropertyOp15
 70
     0
102
RTVSPropertyOp16
 70
     0
102
RTVSPropertyOp17
 70
     0
102
RTVSPropertyOp18
 70
     0
102
RTVSPropertyOp19
 70
     0
102
RTVSPropertyOp20
 70
     0
102
RTVSPropertyOp21
 70
     0
102
RTVSPropertyOp22
 70
     0
102
RTVSPropertyOp23
 70
     0
102
RTVSPropertyOp24
 70
     0
102
RTVSPropertyOp25
 70
     0
102
RTVSPropertyOp26
 70
     0
102
RTVSPropertyOp27
 70
     0
102
RTVSPropertyOp28
 70
     1
102
RTVSPropertyOp29
 70
     1
102
RTVSPropertyOp30
 70
     1
102
RTVSPropertyOp31
 70
     1
102
RTVSPropertyOp32
 70
     1
102
RTVSPropertyOp33
 70
     1
102
RTVSPropertyOp34
 70
     1
102
RTVSPropertyOp35
 70
     1
102
RTVSPropertyOp36
 70
     1
102
RTVSPropertyOp37
 70
     1
102
RTVSPropertyOp38
 70
     1
102
RTVSPropertyOp39
 70
     1
102
RTVSPropertyOp40
 70
     1
102
RTVSPropertyOp41
 70
     1
102
RTVSPropertyOp42
 70
     1
102
RTVSPropertyOp43
 70
     1
102
RTVSPropertyOp44
 70
     1
102
RTVSPropertyOp45
 70
     1
102
RTVSPropertyOp46
 70
     1
102
RTVSPropertyOp47
 70
     1
102
RTVSPropertyOp48
 70
     1
102
RTVSPropertyOp49
 70
     1
102
RTVSPropertyOp50
 70
     1
102
RTVSPropertyOp51
 70
     0
102
RTVSPropertyOp52
 70
     0
102
RTVSPropertyOp53
 70
     1
102
RTVSPropertyOp54
 70
     1
102
RTVSPropertyOp55
 70
     1
102
RTVSPropertyOp56
 70
     1
102
RTVSPropertyOp57
 70
     1
102
RTVSPropertyOp58
 70
     1
102
RTVSPropertyOp59
 70
     1
102
RTVSPropertyOp60
 70
     1
102
RTVSPropertyOp61
 70
     1
102
RTVSPropertyOp62
 70
     1
  0
XRECORD
  5
37E6
102
{ACAD_REACTORS
330
37E5
102
}
330
37E5
100
AcDbXrecord
280
     1
102
RTVSPost2010Prop28
280
     0
102
RTVSPost2010PropOp28
 70
     1
102
RTVSPost2010Prop29
280
     1
102
RTVSPost2010PropOp29
 70
     1
102
RTVSPost2010Prop30
280
     1
102
RTVSPost2010PropOp30
 70
     1
102
RTVSPost2010Prop31
280
     0
102
RTVSPost2010PropOp31
 70
     1
102
RTVSPost2010Prop32
280
     0
102
RTVSPost2010PropOp32
 70
     1
102
RTVSPost2010Prop33
280
     0
102
RTVSPost2010PropOp33
 70
     1
102
RTVSPost2010Prop34
280
     0
102
RTVSPost2010PropOp34
 70
     1
102
RTVSPost2010Prop35
280
     0
102
RTVSPost2010PropOp35
 70
     1
102
RTVSPost2010Prop36
280
     0
102
RTVSPost2010PropOp36
 70
     1
102
RTVSPost2010Prop37
 90
       50
102
RTVSPost2010PropOp37
 70
     1
102
RTVSPost2010Prop38
140
0.0
102
RTVSPost2010PropOp38
 70
     1
102
RTVSPost2010Prop39
140
1.0
102
RTVSPost2010PropOp39
 70
     1
102
RTVSPost2010Prop40
 90
        0
102
RTVSPost2010PropOp40
 70
     1
102
RTVSPost2010Prop41ColorIndex
 90
       18
102
RTVSPost2010Prop41ColorRGB
 90
        0
102
RTVSPost2010PropOp41
 70
     1
102
RTVSPost2010Prop42
 90
       50
102
RTVSPost2010PropOp42
 70
     1
102
RTVSPost2010Prop43
 90
        3
102
RTVSPost2010PropOp43
 70
     1
102
RTVSPost2010Prop44ColorIndex
 90
        5
102
RTVSPost2010Prop44ColorRGB
 90
      255
102
RTVSPost2010PropOp44
 70
     1
102
RTVSPost2010Prop45
280
     0
102
RTVSPost2010PropOp45
 70
     1
102
RTVSPost2010Prop46
 90
       50
102
RTVSPost2010PropOp46
 70
     1
102
RTVSPost2010Prop47
 90
       50
102
RTVSPost2010PropOp47
 70
     1
102
RTVSPost2010Prop48
 90
       50
102
RTVSPost2010PropOp48
 70
     1
102
RTVSPost2010Prop49
280
     0
102
RTVSPost2010PropOp49
 70
     1
102
RTVSPost2010Prop50
 90
       50
102
RTVSPost2010PropOp50
 70
     1
102
RTVSPost2010Prop51ColorIndex
 90
      256
102
RTVSPost2010Prop51ColorRGB
 90
-16777216
102
RTVSPost2010PropOp51
 70
     0
102
RTVSPost2010Prop52
140
1.0
102
RTVSPost2010PropOp52
 70
     0
102
RTVSPost2010Prop53
 90
        2
102
RTVSPost2010PropOp53
 70
     1
102
RTVSPost2010Prop54
  1
strokes_ogs.tif
102
RTVSPost2010PropOp54
 70
     1
102
RTVSPost2010Prop55
280
     0
102
RTVSPost2010PropOp55
 70
     1
102
RTVSPost2010Prop56
140
1.0
102
RTVSPost2010PropOp56
 70
     1
102
RTVSPost2010Prop57
140
1.0
102
RTVSPost2010PropOp57
 70
     1
102
RTVSPropertyOp0
 70
     1
102
RTVSPropertyOp1
 70
     1
102
RTVSPropertyOp2
 70
     1
102
RTVSPropertyOp3
 70
     1
102
RTVSPropertyOp4
 70
     1
102
RTVSPropertyOp5
 70
     1
102
RTVSPropertyOp6
 70
     1
102
RTVSPropertyOp7
 70
     1
102
RTVSPropertyOp8
 70
     1
102
RTVSPropertyOp9
 70
     1
102
RTVSPropertyOp10
 70
     1
102
RTVSPropertyOp11
 70
     1
102
RTVSPropertyOp12
 70
     1
102
RTVSPropertyOp13
 70
     1
102
RTVSPropertyOp14
 70
     1
102
RTVSPropertyOp15
 70
     1
102
RTVSPropertyOp16
 70
     1
102
RTVSPropertyOp17
 70
     1
102
RTVSPropertyOp18
 70
     1
102
RTVSPropertyOp19
 70
     1
102
RTVSPropertyOp20
 70
     1
102
RTVSPropertyOp21
 70
     1
102
RTVSPropertyOp22
 70
     1
102
RTVSPropertyOp23
 70
     1
102
RTVSPropertyOp24
 70
     1
102
RTVSPropertyOp25
 70
     1
102
RTVSPropertyOp26
 70
     1
102
RTVSPropertyOp27
 70
     1
102
RTVSPropertyOp28
 70
     1
102
RTVSPropertyOp29
 70
     1
102
RTVSPropertyOp30
 70
     1
102
RTVSPropertyOp31
 70
     1
102
RTVSPropertyOp32
 70
     1
102
RTVSPropertyOp33
 70
     1
102
RTVSPropertyOp34
 70
     1
102
RTVSPropertyOp35
 70
     1
102
RTVSPropertyOp36
 70
     1
102
RTVSPropertyOp37
 70
     1
102
RTVSPropertyOp38
 70
     1
102
RTVSPropertyOp39
 70
     1
102
RTVSPropertyOp40
 70
     1
102
RTVSPropertyOp41
 70
     1
102
RTVSPropertyOp42
 70
     1
102
RTVSPropertyOp43
 70
     1
102
RTVSPropertyOp44
 70
     1
102
RTVSPropertyOp45
 70
     1
102
RTVSPropertyOp46
 70
     1
102
RTVSPropertyOp47
 70
     1
102
RTVSPropertyOp48
 70
     1
102
RTVSPropertyOp49
 70
     1
102
RTVSPropertyOp50
 70
     1
102
RTVSPropertyOp51
 70
     0
102
RTVSPropertyOp52
 70
     0
102
RTVSPropertyOp53
 70
     1
102
RTVSPropertyOp54
 70
     1
102
RTVSPropertyOp55
 70
     1
102
RTVSPropertyOp56
 70
     1
102
RTVSPropertyOp57
 70
     1
102
RTVSPropertyOp58
 70
     1
102
RTVSPropertyOp59
 70
     1
102
RTVSPropertyOp60
 70
     1
102
RTVSPropertyOp61
 70
     1
102
RTVSPropertyOp62
 70
     1
  0
XRECORD
  5
37CA
102
{ACAD_REACTORS
330
37C9
102
}
330
37C9
100
AcDbXrecord
280
     1
102
RTVSPost2010Prop28
280
     0
102
RTVSPost2010PropOp28
 70
     1
102
RTVSPost2010Prop29
280
     1
102
RTVSPost2010PropOp29
 70
     1
102
RTVSPost2010Prop30
280
     1
102
RTVSPost2010PropOp30
 70
     1
102
RTVSPost2010Prop31
280
     0
102
RTVSPost2010PropOp31
 70
     1
102
RTVSPost2010Prop32
280
     0
102
RTVSPost2010PropOp32
 70
     1
102
RTVSPost2010Prop33
280
     0
102
RTVSPost2010PropOp33
 70
     1
102
RTVSPost2010Prop34
280
     0
102
RTVSPost2010PropOp34
 70
     1
102
RTVSPost2010Prop35
280
     0
102
RTVSPost2010PropOp35
 70
     1
102
RTVSPost2010Prop36
280
     0
102
RTVSPost2010PropOp36
 70
     1
102
RTVSPost2010Prop37
 90
       50
102
RTVSPost2010PropOp37
 70
     1
102
RTVSPost2010Prop38
140
0.0
102
RTVSPost2010PropOp38
 70
     1
102
RTVSPost2010Prop39
140
1.0
102
RTVSPost2010PropOp39
 70
     1
102
RTVSPost2010Prop40
 90
        0
102
RTVSPost2010PropOp40
 70
     1
102
RTVSPost2010Prop41ColorIndex
 90
       18
102
RTVSPost2010Prop41ColorRGB
 90
        0
102
RTVSPost2010PropOp41
 70
     1
102
RTVSPost2010Prop42
 90
       50
102
RTVSPost2010PropOp42
 70
     1
102
RTVSPost2010Prop43
 90
        3
102
RTVSPost2010PropOp43
 70
     1
102
RTVSPost2010Prop44ColorIndex
 90
        5
102
RTVSPost2010Prop44ColorRGB
 90
      255
102
RTVSPost2010PropOp44
 70
     1
102
RTVSPost2010Prop45
280
     0
102
RTVSPost2010PropOp45
 70
     1
102
RTVSPost2010Prop46
 90
       50
102
RTVSPost2010PropOp46
 70
     1
102
RTVSPost2010Prop47
 90
       50
102
RTVSPost2010PropOp47
 70
     1
102
RTVSPost2010Prop48
 90
       50
102
RTVSPost2010PropOp48
 70
     1
102
RTVSPost2010Prop49
280
     0
102
RTVSPost2010PropOp49
 70
     1
102
RTVSPost2010Prop50
 90
       50
102
RTVSPost2010PropOp50
 70
     1
102
RTVSPost2010Prop51ColorIndex
 90
      256
102
RTVSPost2010Prop51ColorRGB
 90
-16777216
102
RTVSPost2010PropOp51
 70
     0
102
RTVSPost2010Prop52
140
1.0
102
RTVSPost2010PropOp52
 70
     0
102
RTVSPost2010Prop53
 90
        2
102
RTVSPost2010PropOp53
 70
     1
102
RTVSPost2010Prop54
  1
strokes_ogs.tif
102
RTVSPost2010PropOp54
 70
     1
102
RTVSPost2010Prop55
280
     0
102
RTVSPost2010PropOp55
 70
     1
102
RTVSPost2010Prop56
140
1.0
102
RTVSPost2010PropOp56
 70
     1
102
RTVSPost2010Prop57
140
1.0
102
RTVSPost2010PropOp57
 70
     1
102
RTVSPropertyOp0
 70
     1
102
RTVSPropertyOp1
 70
     1
102
RTVSPropertyOp2
 70
     1
102
RTVSPropertyOp3
 70
     1
102
RTVSPropertyOp4
 70
     1
102
RTVSPropertyOp5
 70
     1
102
RTVSPropertyOp6
 70
     1
102
RTVSPropertyOp7
 70
     1
102
RTVSPropertyOp8
 70
     1
102
RTVSPropertyOp9
 70
     1
102
RTVSPropertyOp10
 70
     1
102
RTVSPropertyOp11
 70
     1
102
RTVSPropertyOp12
 70
     1
102
RTVSPropertyOp13
 70
     1
102
RTVSPropertyOp14
 70
     1
102
RTVSPropertyOp15
 70
     1
102
RTVSPropertyOp16
 70
     1
102
RTVSPropertyOp17
 70
     1
102
RTVSPropertyOp18
 70
     1
102
RTVSPropertyOp19
 70
     1
102
RTVSPropertyOp20
 70
     1
102
RTVSPropertyOp21
 70
     1
102
RTVSPropertyOp22
 70
     1
102
RTVSPropertyOp23
 70
     1
102
RTVSPropertyOp24
 70
     1
102
RTVSPropertyOp25
 70
     1
102
RTVSPropertyOp26
 70
     1
102
RTVSPropertyOp27
 70
     1
102
RTVSPropertyOp28
 70
     1
102
RTVSPropertyOp29
 70
     1
102
RTVSPropertyOp30
 70
     1
102
RTVSPropertyOp31
 70
     1
102
RTVSPropertyOp32
 70
     1
102
RTVSPropertyOp33
 70
     1
102
RTVSPropertyOp34
 70
     1
102
RTVSPropertyOp35
 70
     1
102
RTVSPropertyOp36
 70
     1
102
RTVSPropertyOp37
 70
     1
102
RTVSPropertyOp38
 70
     1
102
RTVSPropertyOp39
 70
     1
102
RTVSPropertyOp40
 70
     1
102
RTVSPropertyOp41
 70
     1
102
RTVSPropertyOp42
 70
     1
102
RTVSPropertyOp43
 70
     1
102
RTVSPropertyOp44
 70
     1
102
RTVSPropertyOp45
 70
     1
102
RTVSPropertyOp46
 70
     1
102
RTVSPropertyOp47
 70
     1
102
RTVSPropertyOp48
 70
     1
102
RTVSPropertyOp49
 70
     1
102
RTVSPropertyOp50
 70
     1
102
RTVSPropertyOp51
 70
     0
102
RTVSPropertyOp52
 70
     0
102
RTVSPropertyOp53
 70
     1
102
RTVSPropertyOp54
 70
     1
102
RTVSPropertyOp55
 70
     1
102
RTVSPropertyOp56
 70
     1
102
RTVSPropertyOp57
 70
     1
102
RTVSPropertyOp58
 70
     1
102
RTVSPropertyOp59
 70
     1
102
RTVSPropertyOp60
 70
     1
102
RTVSPropertyOp61
 70
     1
102
RTVSPropertyOp62
 70
     1
  0
XRECORD
  5
37CC
102
{ACAD_REACTORS
330
37CB
102
}
330
37CB
100
AcDbXrecord
280
     1
102
RTVSPost2010Prop28
280
     0
102
RTVSPost2010PropOp28
 70
     1
102
RTVSPost2010Prop29
280
     1
102
RTVSPost2010PropOp29
 70
     1
102
RTVSPost2010Prop30
280
     1
102
RTVSPost2010PropOp30
 70
     1
102
RTVSPost2010Prop31
280
     0
102
RTVSPost2010PropOp31
 70
     1
102
RTVSPost2010Prop32
280
     0
102
RTVSPost2010PropOp32
 70
     1
102
RTVSPost2010Prop33
280
     0
102
RTVSPost2010PropOp33
 70
     1
102
RTVSPost2010Prop34
280
     0
102
RTVSPost2010PropOp34
 70
     1
102
RTVSPost2010Prop35
280
     0
102
RTVSPost2010PropOp35
 70
     1
102
RTVSPost2010Prop36
280
     0
102
RTVSPost2010PropOp36
 70
     1
102
RTVSPost2010Prop37
 90
       50
102
RTVSPost2010PropOp37
 70
     1
102
RTVSPost2010Prop38
140
0.0
102
RTVSPost2010PropOp38
 70
     1
102
RTVSPost2010Prop39
140
1.0
102
RTVSPost2010PropOp39
 70
     1
102
RTVSPost2010Prop40
 90
        0
102
RTVSPost2010PropOp40
 70
     1
102
RTVSPost2010Prop41ColorIndex
 90
       18
102
RTVSPost2010Prop41ColorRGB
 90
        0
102
RTVSPost2010PropOp41
 70
     1
102
RTVSPost2010Prop42
 90
       50
102
RTVSPost2010PropOp42
 70
     1
102
RTVSPost2010Prop43
 90
        3
102
RTVSPost2010PropOp43
 70
     1
102
RTVSPost2010Prop44ColorIndex
 90
        5
102
RTVSPost2010Prop44ColorRGB
 90
      255
102
RTVSPost2010PropOp44
 70
     1
102
RTVSPost2010Prop45
280
     0
102
RTVSPost2010PropOp45
 70
     1
102
RTVSPost2010Prop46
 90
       50
102
RTVSPost2010PropOp46
 70
     1
102
RTVSPost2010Prop47
 90
       50
102
RTVSPost2010PropOp47
 70
     1
102
RTVSPost2010Prop48
 90
       50
102
RTVSPost2010PropOp48
 70
     1
102
RTVSPost2010Prop49
280
     0
102
RTVSPost2010PropOp49
 70
     1
102
RTVSPost2010Prop50
 90
       50
102
RTVSPost2010PropOp50
 70
     1
102
RTVSPost2010Prop51ColorIndex
 90
      256
102
RTVSPost2010Prop51ColorRGB
 90
-16777216
102
RTVSPost2010PropOp51
 70
     0
102
RTVSPost2010Prop52
140
1.0
102
RTVSPost2010PropOp52
 70
     0
102
RTVSPost2010Prop53
 90
        2
102
RTVSPost2010PropOp53
 70
     1
102
RTVSPost2010Prop54
  1
strokes_ogs.tif
102
RTVSPost2010PropOp54
 70
     1
102
RTVSPost2010Prop55
280
     0
102
RTVSPost2010PropOp55
 70
     1
102
RTVSPost2010Prop56
140
1.0
102
RTVSPost2010PropOp56
 70
     1
102
RTVSPost2010Prop57
140
1.0
102
RTVSPost2010PropOp57
 70
     1
102
RTVSPropertyOp0
 70
     1
102
RTVSPropertyOp1
 70
     1
102
RTVSPropertyOp2
 70
     1
102
RTVSPropertyOp3
 70
     1
102
RTVSPropertyOp4
 70
     1
102
RTVSPropertyOp5
 70
     1
102
RTVSPropertyOp6
 70
     1
102
RTVSPropertyOp7
 70
     1
102
RTVSPropertyOp8
 70
     1
102
RTVSPropertyOp9
 70
     1
102
RTVSPropertyOp10
 70
     1
102
RTVSPropertyOp11
 70
     1
102
RTVSPropertyOp12
 70
     1
102
RTVSPropertyOp13
 70
     1
102
RTVSPropertyOp14
 70
     1
102
RTVSPropertyOp15
 70
     1
102
RTVSPropertyOp16
 70
     1
102
RTVSPropertyOp17
 70
     1
102
RTVSPropertyOp18
 70
     1
102
RTVSPropertyOp19
 70
     1
102
RTVSPropertyOp20
 70
     1
102
RTVSPropertyOp21
 70
     1
102
RTVSPropertyOp22
 70
     1
102
RTVSPropertyOp23
 70
     1
102
RTVSPropertyOp24
 70
     1
102
RTVSPropertyOp25
 70
     1
102
RTVSPropertyOp26
 70
     1
102
RTVSPropertyOp27
 70
     1
102
RTVSPropertyOp28
 70
     1
102
RTVSPropertyOp29
 70
     1
102
RTVSPropertyOp30
 70
     1
102
RTVSPropertyOp31
 70
     1
102
RTVSPropertyOp32
 70
     1
102
RTVSPropertyOp33
 70
     1
102
RTVSPropertyOp34
 70
     1
102
RTVSPropertyOp35
 70
     1
102
RTVSPropertyOp36
 70
     1
102
RTVSPropertyOp37
 70
     1
102
RTVSPropertyOp38
 70
     1
102
RTVSPropertyOp39
 70
     1
102
RTVSPropertyOp40
 70
     1
102
RTVSPropertyOp41
 70
     1
102
RTVSPropertyOp42
 70
     1
102
RTVSPropertyOp43
 70
     1
102
RTVSPropertyOp44
 70
     1
102
RTVSPropertyOp45
 70
     1
102
RTVSPropertyOp46
 70
     1
102
RTVSPropertyOp47
 70
     1
102
RTVSPropertyOp48
 70
     1
102
RTVSPropertyOp49
 70
     1
102
RTVSPropertyOp50
 70
     1
102
RTVSPropertyOp51
 70
     0
102
RTVSPropertyOp52
 70
     0
102
RTVSPropertyOp53
 70
     1
102
RTVSPropertyOp54
 70
     1
102
RTVSPropertyOp55
 70
     1
102
RTVSPropertyOp56
 70
     1
102
RTVSPropertyOp57
 70
     1
102
RTVSPropertyOp58
 70
     1
102
RTVSPropertyOp59
 70
     1
102
RTVSPropertyOp60
 70
     1
102
RTVSPropertyOp61
 70
     1
102
RTVSPropertyOp62
 70
     1
  0
XRECORD
  5
37CE
102
{ACAD_REACTORS
330
37CD
102
}
330
37CD
100
AcDbXrecord
280
     1
102
RTVSPost2010Prop28
280
     0
102
RTVSPost2010PropOp28
 70
     1
102
RTVSPost2010Prop29
280
     1
102
RTVSPost2010PropOp29
 70
     1
102
RTVSPost2010Prop30
280
     1
102
RTVSPost2010PropOp30
 70
     1
102
RTVSPost2010Prop31
280
     0
102
RTVSPost2010PropOp31
 70
     1
102
RTVSPost2010Prop32
280
     0
102
RTVSPost2010PropOp32
 70
     1
102
RTVSPost2010Prop33
280
     0
102
RTVSPost2010PropOp33
 70
     1
102
RTVSPost2010Prop34
280
     0
102
RTVSPost2010PropOp34
 70
     1
102
RTVSPost2010Prop35
280
     0
102
RTVSPost2010PropOp35
 70
     1
102
RTVSPost2010Prop36
280
     0
102
RTVSPost2010PropOp36
 70
     1
102
RTVSPost2010Prop37
 90
       50
102
RTVSPost2010PropOp37
 70
     1
102
RTVSPost2010Prop38
140
0.0
102
RTVSPost2010PropOp38
 70
     1
102
RTVSPost2010Prop39
140
1.0
102
RTVSPost2010PropOp39
 70
     1
102
RTVSPost2010Prop40
 90
        0
102
RTVSPost2010PropOp40
 70
     1
102
RTVSPost2010Prop41ColorIndex
 90
       18
102
RTVSPost2010Prop41ColorRGB
 90
        0
102
RTVSPost2010PropOp41
 70
     1
102
RTVSPost2010Prop42
 90
       50
102
RTVSPost2010PropOp42
 70
     1
102
RTVSPost2010Prop43
 90
        3
102
RTVSPost2010PropOp43
 70
     1
102
RTVSPost2010Prop44ColorIndex
 90
        5
102
RTVSPost2010Prop44ColorRGB
 90
      255
102
RTVSPost2010PropOp44
 70
     1
102
RTVSPost2010Prop45
280
     0
102
RTVSPost2010PropOp45
 70
     1
102
RTVSPost2010Prop46
 90
       50
102
RTVSPost2010PropOp46
 70
     1
102
RTVSPost2010Prop47
 90
       50
102
RTVSPost2010PropOp47
 70
     1
102
RTVSPost2010Prop48
 90
       50
102
RTVSPost2010PropOp48
 70
     1
102
RTVSPost2010Prop49
280
     0
102
RTVSPost2010PropOp49
 70
     1
102
RTVSPost2010Prop50
 90
       50
102
RTVSPost2010PropOp50
 70
     1
102
RTVSPost2010Prop51ColorIndex
 90
      256
102
RTVSPost2010Prop51ColorRGB
 90
-16777216
102
RTVSPost2010PropOp51
 70
     0
102
RTVSPost2010Prop52
140
1.0
102
RTVSPost2010PropOp52
 70
     0
102
RTVSPost2010Prop53
 90
        2
102
RTVSPost2010PropOp53
 70
     1
102
RTVSPost2010Prop54
  1
strokes_ogs.tif
102
RTVSPost2010PropOp54
 70
     1
102
RTVSPost2010Prop55
280
     0
102
RTVSPost2010PropOp55
 70
     1
102
RTVSPost2010Prop56
140
1.0
102
RTVSPost2010PropOp56
 70
     1
102
RTVSPost2010Prop57
140
1.0
102
RTVSPost2010PropOp57
 70
     1
102
RTVSPropertyOp0
 70
     1
102
RTVSPropertyOp1
 70
     1
102
RTVSPropertyOp2
 70
     1
102
RTVSPropertyOp3
 70
     1
102
RTVSPropertyOp4
 70
     1
102
RTVSPropertyOp5
 70
     1
102
RTVSPropertyOp6
 70
     1
102
RTVSPropertyOp7
 70
     1
102
RTVSPropertyOp8
 70
     1
102
RTVSPropertyOp9
 70
     1
102
RTVSPropertyOp10
 70
     1
102
RTVSPropertyOp11
 70
     1
102
RTVSPropertyOp12
 70
     1
102
RTVSPropertyOp13
 70
     1
102
RTVSPropertyOp14
 70
     1
102
RTVSPropertyOp15
 70
     1
102
RTVSPropertyOp16
 70
     1
102
RTVSPropertyOp17
 70
     1
102
RTVSPropertyOp18
 70
     1
102
RTVSPropertyOp19
 70
     1
102
RTVSPropertyOp20
 70
     1
102
RTVSPropertyOp21
 70
     1
102
RTVSPropertyOp22
 70
     1
102
RTVSPropertyOp23
 70
     1
102
RTVSPropertyOp24
 70
     1
102
RTVSPropertyOp25
 70
     1
102
RTVSPropertyOp26
 70
     1
102
RTVSPropertyOp27
 70
     1
102
RTVSPropertyOp28
 70
     1
102
RTVSPropertyOp29
 70
     1
102
RTVSPropertyOp30
 70
     1
102
RTVSPropertyOp31
 70
     1
102
RTVSPropertyOp32
 70
     1
102
RTVSPropertyOp33
 70
     1
102
RTVSPropertyOp34
 70
     1
102
RTVSPropertyOp35
 70
     1
102
RTVSPropertyOp36
 70
     1
102
RTVSPropertyOp37
 70
     1
102
RTVSPropertyOp38
 70
     1
102
RTVSPropertyOp39
 70
     1
102
RTVSPropertyOp40
 70
     1
102
RTVSPropertyOp41
 70
     1
102
RTVSPropertyOp42
 70
     1
102
RTVSPropertyOp43
 70
     1
102
RTVSPropertyOp44
 70
     1
102
RTVSPropertyOp45
 70
     1
102
RTVSPropertyOp46
 70
     1
102
RTVSPropertyOp47
 70
     1
102
RTVSPropertyOp48
 70
     1
102
RTVSPropertyOp49
 70
     1
102
RTVSPropertyOp50
 70
     1
102
RTVSPropertyOp51
 70
     0
102
RTVSPropertyOp52
 70
     0
102
RTVSPropertyOp53
 70
     1
102
RTVSPropertyOp54
 70
     1
102
RTVSPropertyOp55
 70
     1
102
RTVSPropertyOp56
 70
     1
102
RTVSPropertyOp57
 70
     1
102
RTVSPropertyOp58
 70
     1
102
RTVSPropertyOp59
 70
     1
102
RTVSPropertyOp60
 70
     1
102
RTVSPropertyOp61
 70
     1
102
RTVSPropertyOp62
 70
     1
  0
XRECORD
  5
37D0
102
{ACAD_REACTORS
330
37CF
102
}
330
37CF
100
AcDbXrecord
280
     1
102
RTVSPost2010Prop28
280
     0
102
RTVSPost2010PropOp28
 70
     1
102
RTVSPost2010Prop29
280
     1
102
RTVSPost2010PropOp29
 70
     1
102
RTVSPost2010Prop30
280
     1
102
RTVSPost2010PropOp30
 70
     1
102
RTVSPost2010Prop31
280
     0
102
RTVSPost2010PropOp31
 70
     1
102
RTVSPost2010Prop32
280
     0
102
RTVSPost2010PropOp32
 70
     1
102
RTVSPost2010Prop33
280
     0
102
RTVSPost2010PropOp33
 70
     1
102
RTVSPost2010Prop34
280
     0
102
RTVSPost2010PropOp34
 70
     1
102
RTVSPost2010Prop35
280
     0
102
RTVSPost2010PropOp35
 70
     1
102
RTVSPost2010Prop36
280
     0
102
RTVSPost2010PropOp36
 70
     1
102
RTVSPost2010Prop37
 90
       50
102
RTVSPost2010PropOp37
 70
     1
102
RTVSPost2010Prop38
140
0.0
102
RTVSPost2010PropOp38
 70
     1
102
RTVSPost2010Prop39
140
1.0
102
RTVSPost2010PropOp39
 70
     1
102
RTVSPost2010Prop40
 90
        0
102
RTVSPost2010PropOp40
 70
     1
102
RTVSPost2010Prop41ColorIndex
 90
       18
102
RTVSPost2010Prop41ColorRGB
 90
        0
102
RTVSPost2010PropOp41
 70
     1
102
RTVSPost2010Prop42
 90
       50
102
RTVSPost2010PropOp42
 70
     1
102
RTVSPost2010Prop43
 90
        3
102
RTVSPost2010PropOp43
 70
     1
102
RTVSPost2010Prop44ColorIndex
 90
        5
102
RTVSPost2010Prop44ColorRGB
 90
      255
102
RTVSPost2010PropOp44
 70
     1
102
RTVSPost2010Prop45
280
     0
102
RTVSPost2010PropOp45
 70
     1
102
RTVSPost2010Prop46
 90
       50
102
RTVSPost2010PropOp46
 70
     1
102
RTVSPost2010Prop47
 90
       50
102
RTVSPost2010PropOp47
 70
     1
102
RTVSPost2010Prop48
 90
       50
102
RTVSPost2010PropOp48
 70
     1
102
RTVSPost2010Prop49
280
     0
102
RTVSPost2010PropOp49
 70
     1
102
RTVSPost2010Prop50
 90
       50
102
RTVSPost2010PropOp50
 70
     1
102
RTVSPost2010Prop51ColorIndex
 90
      256
102
RTVSPost2010Prop51ColorRGB
 90
-16777216
102
RTVSPost2010PropOp51
 70
     0
102
RTVSPost2010Prop52
140
1.0
102
RTVSPost2010PropOp52
 70
     0
102
RTVSPost2010Prop53
 90
        2
102
RTVSPost2010PropOp53
 70
     1
102
RTVSPost2010Prop54
  1
strokes_ogs.tif
102
RTVSPost2010PropOp54
 70
     1
102
RTVSPost2010Prop55
280
     0
102
RTVSPost2010PropOp55
 70
     1
102
RTVSPost2010Prop56
140
1.0
102
RTVSPost2010PropOp56
 70
     1
102
RTVSPost2010Prop57
140
1.0
102
RTVSPost2010PropOp57
 70
     1
102
RTVSPropertyOp0
 70
     1
102
RTVSPropertyOp1
 70
     1
102
RTVSPropertyOp2
 70
     1
102
RTVSPropertyOp3
 70
     1
102
RTVSPropertyOp4
 70
     1
102
RTVSPropertyOp5
 70
     1
102
RTVSPropertyOp6
 70
     1
102
RTVSPropertyOp7
 70
     1
102
RTVSPropertyOp8
 70
     1
102
RTVSPropertyOp9
 70
     1
102
RTVSPropertyOp10
 70
     1
102
RTVSPropertyOp11
 70
     1
102
RTVSPropertyOp12
 70
     1
102
RTVSPropertyOp13
 70
     1
102
RTVSPropertyOp14
 70
     1
102
RTVSPropertyOp15
 70
     1
102
RTVSPropertyOp16
 70
     1
102
RTVSPropertyOp17
 70
     1
102
RTVSPropertyOp18
 70
     1
102
RTVSPropertyOp19
 70
     1
102
RTVSPropertyOp20
 70
     1
102
RTVSPropertyOp21
 70
     1
102
RTVSPropertyOp22
 70
     1
102
RTVSPropertyOp23
 70
     1
102
RTVSPropertyOp24
 70
     1
102
RTVSPropertyOp25
 70
     1
102
RTVSPropertyOp26
 70
     1
102
RTVSPropertyOp27
 70
     1
102
RTVSPropertyOp28
 70
     1
102
RTVSPropertyOp29
 70
     1
102
RTVSPropertyOp30
 70
     1
102
RTVSPropertyOp31
 70
     1
102
RTVSPropertyOp32
 70
     1
102
RTVSPropertyOp33
 70
     1
102
RTVSPropertyOp34
 70
     1
102
RTVSPropertyOp35
 70
     1
102
RTVSPropertyOp36
 70
     1
102
RTVSPropertyOp37
 70
     1
102
RTVSPropertyOp38
 70
     1
102
RTVSPropertyOp39
 70
     1
102
RTVSPropertyOp40
 70
     1
102
RTVSPropertyOp41
 70
     1
102
RTVSPropertyOp42
 70
     1
102
RTVSPropertyOp43
 70
     1
102
RTVSPropertyOp44
 70
     1
102
RTVSPropertyOp45
 70
     1
102
RTVSPropertyOp46
 70
     1
102
RTVSPropertyOp47
 70
     1
102
RTVSPropertyOp48
 70
     1
102
RTVSPropertyOp49
 70
     1
102
RTVSPropertyOp50
 70
     1
102
RTVSPropertyOp51
 70
     0
102
RTVSPropertyOp52
 70
     0
102
RTVSPropertyOp53
 70
     1
102
RTVSPropertyOp54
 70
     1
102
RTVSPropertyOp55
 70
     1
102
RTVSPropertyOp56
 70
     1
102
RTVSPropertyOp57
 70
     1
102
RTVSPropertyOp58
 70
     1
102
RTVSPropertyOp59
 70
     1
102
RTVSPropertyOp60
 70
     1
102
RTVSPropertyOp61
 70
     1
102
RTVSPropertyOp62
 70
     1
  0
XRECORD
  5
37D8
102
{ACAD_REACTORS
330
37D7
102
}
330
37D7
100
AcDbXrecord
280
     1
102
RTVSPost2010Prop28
280
     0
102
RTVSPost2010PropOp28
 70
     1
102
RTVSPost2010Prop29
280
     1
102
RTVSPost2010PropOp29
 70
     1
102
RTVSPost2010Prop30
280
     1
102
RTVSPost2010PropOp30
 70
     1
102
RTVSPost2010Prop31
280
     0
102
RTVSPost2010PropOp31
 70
     1
102
RTVSPost2010Prop32
280
     0
102
RTVSPost2010PropOp32
 70
     1
102
RTVSPost2010Prop33
280
     0
102
RTVSPost2010PropOp33
 70
     1
102
RTVSPost2010Prop34
280
     0
102
RTVSPost2010PropOp34
 70
     1
102
RTVSPost2010Prop35
280
     0
102
RTVSPost2010PropOp35
 70
     1
102
RTVSPost2010Prop36
280
     0
102
RTVSPost2010PropOp36
 70
     1
102
RTVSPost2010Prop37
 90
       50
102
RTVSPost2010PropOp37
 70
     1
102
RTVSPost2010Prop38
140
0.0
102
RTVSPost2010PropOp38
 70
     1
102
RTVSPost2010Prop39
140
1.0
102
RTVSPost2010PropOp39
 70
     1
102
RTVSPost2010Prop40
 90
        0
102
RTVSPost2010PropOp40
 70
     1
102
RTVSPost2010Prop41ColorIndex
 90
       18
102
RTVSPost2010Prop41ColorRGB
 90
        0
102
RTVSPost2010PropOp41
 70
     1
102
RTVSPost2010Prop42
 90
       50
102
RTVSPost2010PropOp42
 70
     1
102
RTVSPost2010Prop43
 90
        3
102
RTVSPost2010PropOp43
 70
     1
102
RTVSPost2010Prop44ColorIndex
 90
        5
102
RTVSPost2010Prop44ColorRGB
 90
      255
102
RTVSPost2010PropOp44
 70
     1
102
RTVSPost2010Prop45
280
     0
102
RTVSPost2010PropOp45
 70
     1
102
RTVSPost2010Prop46
 90
       50
102
RTVSPost2010PropOp46
 70
     1
102
RTVSPost2010Prop47
 90
       50
102
RTVSPost2010PropOp47
 70
     1
102
RTVSPost2010Prop48
 90
       50
102
RTVSPost2010PropOp48
 70
     1
102
RTVSPost2010Prop49
280
     0
102
RTVSPost2010PropOp49
 70
     1
102
RTVSPost2010Prop50
 90
       50
102
RTVSPost2010PropOp50
 70
     1
102
RTVSPost2010Prop51ColorIndex
 90
      256
102
RTVSPost2010Prop51ColorRGB
 90
-16777216
102
RTVSPost2010PropOp51
 70
     0
102
RTVSPost2010Prop52
140
1.0
102
RTVSPost2010PropOp52
 70
     0
102
RTVSPost2010Prop53
 90
        2
102
RTVSPost2010PropOp53
 70
     1
102
RTVSPost2010Prop54
  1
strokes_ogs.tif
102
RTVSPost2010PropOp54
 70
     1
102
RTVSPost2010Prop55
280
     0
102
RTVSPost2010PropOp55
 70
     1
102
RTVSPost2010Prop56
140
1.0
102
RTVSPost2010PropOp56
 70
     1
102
RTVSPost2010Prop57
140
1.0
102
RTVSPost2010PropOp57
 70
     1
102
RTVSPropertyOp0
 70
     1
102
RTVSPropertyOp1
 70
     1
102
RTVSPropertyOp2
 70
     1
102
RTVSPropertyOp3
 70
     1
102
RTVSPropertyOp4
 70
     1
102
RTVSPropertyOp5
 70
     1
102
RTVSPropertyOp6
 70
     1
102
RTVSPropertyOp7
 70
     1
102
RTVSPropertyOp8
 70
     1
102
RTVSPropertyOp9
 70
     1
102
RTVSPropertyOp10
 70
     1
102
RTVSPropertyOp11
 70
     1
102
RTVSPropertyOp12
 70
     1
102
RTVSPropertyOp13
 70
     1
102
RTVSPropertyOp14
 70
     1
102
RTVSPropertyOp15
 70
     1
102
RTVSPropertyOp16
 70
     1
102
RTVSPropertyOp17
 70
     1
102
RTVSPropertyOp18
 70
     1
102
RTVSPropertyOp19
 70
     1
102
RTVSPropertyOp20
 70
     1
102
RTVSPropertyOp21
 70
     1
102
RTVSPropertyOp22
 70
     1
102
RTVSPropertyOp23
 70
     1
102
RTVSPropertyOp24
 70
     1
102
RTVSPropertyOp25
 70
     1
102
RTVSPropertyOp26
 70
     1
102
RTVSPropertyOp27
 70
     1
102
RTVSPropertyOp28
 70
     1
102
RTVSPropertyOp29
 70
     1
102
RTVSPropertyOp30
 70
     1
102
RTVSPropertyOp31
 70
     1
102
RTVSPropertyOp32
 70
     1
102
RTVSPropertyOp33
 70
     1
102
RTVSPropertyOp34
 70
     1
102
RTVSPropertyOp35
 70
     1
102
RTVSPropertyOp36
 70
     1
102
RTVSPropertyOp37
 70
     1
102
RTVSPropertyOp38
 70
     1
102
RTVSPropertyOp39
 70
     1
102
RTVSPropertyOp40
 70
     1
102
RTVSPropertyOp41
 70
     1
102
RTVSPropertyOp42
 70
     1
102
RTVSPropertyOp43
 70
     1
102
RTVSPropertyOp44
 70
     1
102
RTVSPropertyOp45
 70
     1
102
RTVSPropertyOp46
 70
     1
102
RTVSPropertyOp47
 70
     1
102
RTVSPropertyOp48
 70
     1
102
RTVSPropertyOp49
 70
     1
102
RTVSPropertyOp50
 70
     1
102
RTVSPropertyOp51
 70
     0
102
RTVSPropertyOp52
 70
     0
102
RTVSPropertyOp53
 70
     1
102
RTVSPropertyOp54
 70
     1
102
RTVSPropertyOp55
 70
     1
102
RTVSPropertyOp56
 70
     1
102
RTVSPropertyOp57
 70
     1
102
RTVSPropertyOp58
 70
     1
102
RTVSPropertyOp59
 70
     1
102
RTVSPropertyOp60
 70
     1
102
RTVSPropertyOp61
 70
     1
102
RTVSPropertyOp62
 70
     1
  0
XRECORD
  5
37EC
102
{ACAD_REACTORS
330
37EB
102
}
330
37EB
100
AcDbXrecord
280
     1
102
RTVSPost2010Prop28
280
     0
102
RTVSPost2010PropOp28
 70
     1
102
RTVSPost2010Prop29
280
     1
102
RTVSPost2010PropOp29
 70
     1
102
RTVSPost2010Prop30
280
     1
102
RTVSPost2010PropOp30
 70
     1
102
RTVSPost2010Prop31
280
     0
102
RTVSPost2010PropOp31
 70
     1
102
RTVSPost2010Prop32
280
     0
102
RTVSPost2010PropOp32
 70
     1
102
RTVSPost2010Prop33
280
     0
102
RTVSPost2010PropOp33
 70
     1
102
RTVSPost2010Prop34
280
     0
102
RTVSPost2010PropOp34
 70
     1
102
RTVSPost2010Prop35
280
     0
102
RTVSPost2010PropOp35
 70
     1
102
RTVSPost2010Prop36
280
     0
102
RTVSPost2010PropOp36
 70
     1
102
RTVSPost2010Prop37
 90
       50
102
RTVSPost2010PropOp37
 70
     1
102
RTVSPost2010Prop38
140
0.0
102
RTVSPost2010PropOp38
 70
     1
102
RTVSPost2010Prop39
140
1.0
102
RTVSPost2010PropOp39
 70
     1
102
RTVSPost2010Prop40
 90
        0
102
RTVSPost2010PropOp40
 70
     1
102
RTVSPost2010Prop41ColorIndex
 90
       18
102
RTVSPost2010Prop41ColorRGB
 90
        0
102
RTVSPost2010PropOp41
 70
     1
102
RTVSPost2010Prop42
 90
       50
102
RTVSPost2010PropOp42
 70
     1
102
RTVSPost2010Prop43
 90
        3
102
RTVSPost2010PropOp43
 70
     1
102
RTVSPost2010Prop44ColorIndex
 90
        5
102
RTVSPost2010Prop44ColorRGB
 90
      255
102
RTVSPost2010PropOp44
 70
     1
102
RTVSPost2010Prop45
280
     0
102
RTVSPost2010PropOp45
 70
     1
102
RTVSPost2010Prop46
 90
       50
102
RTVSPost2010PropOp46
 70
     1
102
RTVSPost2010Prop47
 90
       50
102
RTVSPost2010PropOp47
 70
     1
102
RTVSPost2010Prop48
 90
       50
102
RTVSPost2010PropOp48
 70
     1
102
RTVSPost2010Prop49
280
     0
102
RTVSPost2010PropOp49
 70
     1
102
RTVSPost2010Prop50
 90
       50
102
RTVSPost2010PropOp50
 70
     1
102
RTVSPost2010Prop51ColorIndex
 90
      256
102
RTVSPost2010Prop51ColorRGB
 90
-16777216
102
RTVSPost2010PropOp51
 70
     0
102
RTVSPost2010Prop52
140
1.0
102
RTVSPost2010PropOp52
 70
     0
102
RTVSPost2010Prop53
 90
        2
102
RTVSPost2010PropOp53
 70
     1
102
RTVSPost2010Prop54
  1
strokes_ogs.tif
102
RTVSPost2010PropOp54
 70
     1
102
RTVSPost2010Prop55
280
     0
102
RTVSPost2010PropOp55
 70
     1
102
RTVSPost2010Prop56
140
1.0
102
RTVSPost2010PropOp56
 70
     1
102
RTVSPost2010Prop57
140
1.0
102
RTVSPost2010PropOp57
 70
     1
102
RTVSPropertyOp0
 70
     0
102
RTVSPropertyOp1
 70
     0
102
RTVSPropertyOp2
 70
     0
102
RTVSPropertyOp3
 70
     0
102
RTVSPropertyOp4
 70
     0
102
RTVSPropertyOp5
 70
     0
102
RTVSPropertyOp6
 70
     0
102
RTVSPropertyOp7
 70
     0
102
RTVSPropertyOp8
 70
     0
102
RTVSPropertyOp9
 70
     0
102
RTVSPropertyOp10
 70
     0
102
RTVSPropertyOp11
 70
     0
102
RTVSPropertyOp12
 70
     0
102
RTVSPropertyOp13
 70
     0
102
RTVSPropertyOp14
 70
     2
102
RTVSPropertyOp15
 70
     0
102
RTVSPropertyOp16
 70
     0
102
RTVSPropertyOp17
 70
     0
102
RTVSPropertyOp18
 70
     0
102
RTVSPropertyOp19
 70
     0
102
RTVSPropertyOp20
 70
     0
102
RTVSPropertyOp21
 70
     0
102
RTVSPropertyOp22
 70
     0
102
RTVSPropertyOp23
 70
     0
102
RTVSPropertyOp24
 70
     0
102
RTVSPropertyOp25
 70
     0
102
RTVSPropertyOp26
 70
     0
102
RTVSPropertyOp27
 70
     0
102
RTVSPropertyOp28
 70
     1
102
RTVSPropertyOp29
 70
     1
102
RTVSPropertyOp30
 70
     1
102
RTVSPropertyOp31
 70
     1
102
RTVSPropertyOp32
 70
     1
102
RTVSPropertyOp33
 70
     1
102
RTVSPropertyOp34
 70
     1
102
RTVSPropertyOp35
 70
     1
102
RTVSPropertyOp36
 70
     1
102
RTVSPropertyOp37
 70
     1
102
RTVSPropertyOp38
 70
     1
102
RTVSPropertyOp39
 70
     1
102
RTVSPropertyOp40
 70
     1
102
RTVSPropertyOp41
 70
     1
102
RTVSPropertyOp42
 70
     1
102
RTVSPropertyOp43
 70
     1
102
RTVSPropertyOp44
 70
     1
102
RTVSPropertyOp45
 70
     1
102
RTVSPropertyOp46
 70
     1
102
RTVSPropertyOp47
 70
     1
102
RTVSPropertyOp48
 70
     1
102
RTVSPropertyOp49
 70
     1
102
RTVSPropertyOp50
 70
     1
102
RTVSPropertyOp51
 70
     0
102
RTVSPropertyOp52
 70
     0
102
RTVSPropertyOp53
 70
     1
102
RTVSPropertyOp54
 70
     1
102
RTVSPropertyOp55
 70
     1
102
RTVSPropertyOp56
 70
     1
102
RTVSPropertyOp57
 70
     1
102
RTVSPropertyOp58
 70
     1
102
RTVSPropertyOp59
 70
     1
102
RTVSPropertyOp60
 70
     1
102
RTVSPropertyOp61
 70
     1
102
RTVSPropertyOp62
 70
     1
  0
XRECORD
  5
37E4
102
{ACAD_REACTORS
330
37E3
102
}
330
37E3
100
AcDbXrecord
280
     1
102
RTVSPost2010Prop28
280
     0
102
RTVSPost2010PropOp28
 70
     1
102
RTVSPost2010Prop29
280
     1
102
RTVSPost2010PropOp29
 70
     1
102
RTVSPost2010Prop30
280
     1
102
RTVSPost2010PropOp30
 70
     1
102
RTVSPost2010Prop31
280
     0
102
RTVSPost2010PropOp31
 70
     1
102
RTVSPost2010Prop32
280
     0
102
RTVSPost2010PropOp32
 70
     1
102
RTVSPost2010Prop33
280
     0
102
RTVSPost2010PropOp33
 70
     1
102
RTVSPost2010Prop34
280
     0
102
RTVSPost2010PropOp34
 70
     1
102
RTVSPost2010Prop35
280
     0
102
RTVSPost2010PropOp35
 70
     1
102
RTVSPost2010Prop36
280
     0
102
RTVSPost2010PropOp36
 70
     1
102
RTVSPost2010Prop37
 90
       50
102
RTVSPost2010PropOp37
 70
     1
102
RTVSPost2010Prop38
140
0.0
102
RTVSPost2010PropOp38
 70
     1
102
RTVSPost2010Prop39
140
1.0
102
RTVSPost2010PropOp39
 70
     1
102
RTVSPost2010Prop40
 90
        0
102
RTVSPost2010PropOp40
 70
     1
102
RTVSPost2010Prop41ColorIndex
 90
       18
102
RTVSPost2010Prop41ColorRGB
 90
        0
102
RTVSPost2010PropOp41
 70
     1
102
RTVSPost2010Prop42
 90
       50
102
RTVSPost2010PropOp42
 70
     1
102
RTVSPost2010Prop43
 90
        3
102
RTVSPost2010PropOp43
 70
     1
102
RTVSPost2010Prop44ColorIndex
 90
        5
102
RTVSPost2010Prop44ColorRGB
 90
      255
102
RTVSPost2010PropOp44
 70
     1
102
RTVSPost2010Prop45
280
     0
102
RTVSPost2010PropOp45
 70
     1
102
RTVSPost2010Prop46
 90
       50
102
RTVSPost2010PropOp46
 70
     1
102
RTVSPost2010Prop47
 90
       50
102
RTVSPost2010PropOp47
 70
     1
102
RTVSPost2010Prop48
 90
       50
102
RTVSPost2010PropOp48
 70
     1
102
RTVSPost2010Prop49
280
     0
102
RTVSPost2010PropOp49
 70
     1
102
RTVSPost2010Prop50
 90
       50
102
RTVSPost2010PropOp50
 70
     1
102
RTVSPost2010Prop51ColorIndex
 90
      256
102
RTVSPost2010Prop51ColorRGB
 90
-16777216
102
RTVSPost2010PropOp51
 70
     0
102
RTVSPost2010Prop52
140
1.0
102
RTVSPost2010PropOp52
 70
     0
102
RTVSPost2010Prop53
 90
        2
102
RTVSPost2010PropOp53
 70
     1
102
RTVSPost2010Prop54
  1
strokes_ogs.tif
102
RTVSPost2010PropOp54
 70
     1
102
RTVSPost2010Prop55
280
     0
102
RTVSPost2010PropOp55
 70
     1
102
RTVSPost2010Prop56
140
1.0
102
RTVSPost2010PropOp56
 70
     1
102
RTVSPost2010Prop57
140
1.0
102
RTVSPost2010PropOp57
 70
     1
102
RTVSPropertyOp0
 70
     1
102
RTVSPropertyOp1
 70
     1
102
RTVSPropertyOp2
 70
     1
102
RTVSPropertyOp3
 70
     1
102
RTVSPropertyOp4
 70
     1
102
RTVSPropertyOp5
 70
     1
102
RTVSPropertyOp6
 70
     1
102
RTVSPropertyOp7
 70
     1
102
RTVSPropertyOp8
 70
     1
102
RTVSPropertyOp9
 70
     1
102
RTVSPropertyOp10
 70
     1
102
RTVSPropertyOp11
 70
     1
102
RTVSPropertyOp12
 70
     1
102
RTVSPropertyOp13
 70
     1
102
RTVSPropertyOp14
 70
     1
102
RTVSPropertyOp15
 70
     1
102
RTVSPropertyOp16
 70
     1
102
RTVSPropertyOp17
 70
     1
102
RTVSPropertyOp18
 70
     1
102
RTVSPropertyOp19
 70
     1
102
RTVSPropertyOp20
 70
     1
102
RTVSPropertyOp21
 70
     1
102
RTVSPropertyOp22
 70
     1
102
RTVSPropertyOp23
 70
     1
102
RTVSPropertyOp24
 70
     1
102
RTVSPropertyOp25
 70
     1
102
RTVSPropertyOp26
 70
     1
102
RTVSPropertyOp27
 70
     1
102
RTVSPropertyOp28
 70
     1
102
RTVSPropertyOp29
 70
     1
102
RTVSPropertyOp30
 70
     1
102
RTVSPropertyOp31
 70
     1
102
RTVSPropertyOp32
 70
     1
102
RTVSPropertyOp33
 70
     1
102
RTVSPropertyOp34
 70
     1
102
RTVSPropertyOp35
 70
     1
102
RTVSPropertyOp36
 70
     1
102
RTVSPropertyOp37
 70
     1
102
RTVSPropertyOp38
 70
     1
102
RTVSPropertyOp39
 70
     1
102
RTVSPropertyOp40
 70
     1
102
RTVSPropertyOp41
 70
     1
102
RTVSPropertyOp42
 70
     1
102
RTVSPropertyOp43
 70
     1
102
RTVSPropertyOp44
 70
     1
102
RTVSPropertyOp45
 70
     1
102
RTVSPropertyOp46
 70
     1
102
RTVSPropertyOp47
 70
     1
102
RTVSPropertyOp48
 70
     1
102
RTVSPropertyOp49
 70
     1
102
RTVSPropertyOp50
 70
     1
102
RTVSPropertyOp51
 70
     0
102
RTVSPropertyOp52
 70
     0
102
RTVSPropertyOp53
 70
     1
102
RTVSPropertyOp54
 70
     1
102
RTVSPropertyOp55
 70
     1
102
RTVSPropertyOp56
 70
     1
102
RTVSPropertyOp57
 70
     1
102
RTVSPropertyOp58
 70
     1
102
RTVSPropertyOp59
 70
     1
102
RTVSPropertyOp60
 70
     1
102
RTVSPropertyOp61
 70
     1
102
RTVSPropertyOp62
 70
     1
  0
XRECORD
  5
37EE
102
{ACAD_REACTORS
330
37ED
102
}
330
37ED
100
AcDbXrecord
280
     1
102
RTVSPost2010Prop28
280
     0
102
RTVSPost2010PropOp28
 70
     1
102
RTVSPost2010Prop29
280
     1
102
RTVSPost2010PropOp29
 70
     1
102
RTVSPost2010Prop30
280
     1
102
RTVSPost2010PropOp30
 70
     1
102
RTVSPost2010Prop31
280
     0
102
RTVSPost2010PropOp31
 70
     1
102
RTVSPost2010Prop32
280
     0
102
RTVSPost2010PropOp32
 70
     1
102
RTVSPost2010Prop33
280
     0
102
RTVSPost2010PropOp33
 70
     1
102
RTVSPost2010Prop34
280
     0
102
RTVSPost2010PropOp34
 70
     1
102
RTVSPost2010Prop35
280
     0
102
RTVSPost2010PropOp35
 70
     1
102
RTVSPost2010Prop36
280
     0
102
RTVSPost2010PropOp36
 70
     1
102
RTVSPost2010Prop37
 90
       50
102
RTVSPost2010PropOp37
 70
     1
102
RTVSPost2010Prop38
140
0.0
102
RTVSPost2010PropOp38
 70
     1
102
RTVSPost2010Prop39
140
1.0
102
RTVSPost2010PropOp39
 70
     1
102
RTVSPost2010Prop40
 90
        0
102
RTVSPost2010PropOp40
 70
     1
102
RTVSPost2010Prop41ColorIndex
 90
       18
102
RTVSPost2010Prop41ColorRGB
 90
        0
102
RTVSPost2010PropOp41
 70
     1
102
RTVSPost2010Prop42
 90
       50
102
RTVSPost2010PropOp42
 70
     1
102
RTVSPost2010Prop43
 90
        3
102
RTVSPost2010PropOp43
 70
     1
102
RTVSPost2010Prop44ColorIndex
 90
        5
102
RTVSPost2010Prop44ColorRGB
 90
      255
102
RTVSPost2010PropOp44
 70
     1
102
RTVSPost2010Prop45
280
     0
102
RTVSPost2010PropOp45
 70
     1
102
RTVSPost2010Prop46
 90
       50
102
RTVSPost2010PropOp46
 70
     1
102
RTVSPost2010Prop47
 90
       50
102
RTVSPost2010PropOp47
 70
     1
102
RTVSPost2010Prop48
 90
       50
102
RTVSPost2010PropOp48
 70
     1
102
RTVSPost2010Prop49
280
     0
102
RTVSPost2010PropOp49
 70
     1
102
RTVSPost2010Prop50
 90
       50
102
RTVSPost2010PropOp50
 70
     1
102
RTVSPost2010Prop51ColorIndex
 90
      256
102
RTVSPost2010Prop51ColorRGB
 90
-16777216
102
RTVSPost2010PropOp51
 70
     0
102
RTVSPost2010Prop52
140
1.0
102
RTVSPost2010PropOp52
 70
     0
102
RTVSPost2010Prop53
 90
        2
102
RTVSPost2010PropOp53
 70
     1
102
RTVSPost2010Prop54
  1
strokes_ogs.tif
102
RTVSPost2010PropOp54
 70
     1
102
RTVSPost2010Prop55
280
     0
102
RTVSPost2010PropOp55
 70
     1
102
RTVSPost2010Prop56
140
1.0
102
RTVSPost2010PropOp56
 70
     1
102
RTVSPost2010Prop57
140
1.0
102
RTVSPost2010PropOp57
 70
     1
102
RTVSPropertyOp0
 70
     0
102
RTVSPropertyOp1
 70
     0
102
RTVSPropertyOp2
 70
     0
102
RTVSPropertyOp3
 70
     0
102
RTVSPropertyOp4
 70
     0
102
RTVSPropertyOp5
 70
     0
102
RTVSPropertyOp6
 70
     0
102
RTVSPropertyOp7
 70
     0
102
RTVSPropertyOp8
 70
     0
102
RTVSPropertyOp9
 70
     0
102
RTVSPropertyOp10
 70
     0
102
RTVSPropertyOp11
 70
     0
102
RTVSPropertyOp12
 70
     0
102
RTVSPropertyOp13
 70
     0
102
RTVSPropertyOp14
 70
     2
102
RTVSPropertyOp15
 70
     0
102
RTVSPropertyOp16
 70
     0
102
RTVSPropertyOp17
 70
     0
102
RTVSPropertyOp18
 70
     0
102
RTVSPropertyOp19
 70
     0
102
RTVSPropertyOp20
 70
     0
102
RTVSPropertyOp21
 70
     0
102
RTVSPropertyOp22
 70
     0
102
RTVSPropertyOp23
 70
     0
102
RTVSPropertyOp24
 70
     0
102
RTVSPropertyOp25
 70
     0
102
RTVSPropertyOp26
 70
     0
102
RTVSPropertyOp27
 70
     0
102
RTVSPropertyOp28
 70
     1
102
RTVSPropertyOp29
 70
     1
102
RTVSPropertyOp30
 70
     1
102
RTVSPropertyOp31
 70
     1
102
RTVSPropertyOp32
 70
     1
102
RTVSPropertyOp33
 70
     1
102
RTVSPropertyOp34
 70
     1
102
RTVSPropertyOp35
 70
     1
102
RTVSPropertyOp36
 70
     1
102
RTVSPropertyOp37
 70
     1
102
RTVSPropertyOp38
 70
     1
102
RTVSPropertyOp39
 70
     1
102
RTVSPropertyOp40
 70
     1
102
RTVSPropertyOp41
 70
     1
102
RTVSPropertyOp42
 70
     1
102
RTVSPropertyOp43
 70
     1
102
RTVSPropertyOp44
 70
     1
102
RTVSPropertyOp45
 70
     1
102
RTVSPropertyOp46
 70
     1
102
RTVSPropertyOp47
 70
     1
102
RTVSPropertyOp48
 70
     1
102
RTVSPropertyOp49
 70
     1
102
RTVSPropertyOp50
 70
     1
102
RTVSPropertyOp51
 70
     0
102
RTVSPropertyOp52
 70
     0
102
RTVSPropertyOp53
 70
     1
102
RTVSPropertyOp54
 70
     1
102
RTVSPropertyOp55
 70
     1
102
RTVSPropertyOp56
 70
     1
102
RTVSPropertyOp57
 70
     1
102
RTVSPropertyOp58
 70
     1
102
RTVSPropertyOp59
 70
     1
102
RTVSPropertyOp60
 70
     1
102
RTVSPropertyOp61
 70
     1
102
RTVSPropertyOp62
 70
     1
  0
XRECORD
  5
37DC
102
{ACAD_REACTORS
330
37DB
102
}
330
37DB
100
AcDbXrecord
280
     1
102
RTVSPost2010Prop28
280
     0
102
RTVSPost2010PropOp28
 70
     1
102
RTVSPost2010Prop29
280
     1
102
RTVSPost2010PropOp29
 70
     1
102
RTVSPost2010Prop30
280
     1
102
RTVSPost2010PropOp30
 70
     1
102
RTVSPost2010Prop31
280
     0
102
RTVSPost2010PropOp31
 70
     1
102
RTVSPost2010Prop32
280
     0
102
RTVSPost2010PropOp32
 70
     1
102
RTVSPost2010Prop33
280
     0
102
RTVSPost2010PropOp33
 70
     1
102
RTVSPost2010Prop34
280
     0
102
RTVSPost2010PropOp34
 70
     1
102
RTVSPost2010Prop35
280
     0
102
RTVSPost2010PropOp35
 70
     1
102
RTVSPost2010Prop36
280
     0
102
RTVSPost2010PropOp36
 70
     1
102
RTVSPost2010Prop37
 90
       50
102
RTVSPost2010PropOp37
 70
     1
102
RTVSPost2010Prop38
140
0.0
102
RTVSPost2010PropOp38
 70
     1
102
RTVSPost2010Prop39
140
1.0
102
RTVSPost2010PropOp39
 70
     1
102
RTVSPost2010Prop40
 90
        0
102
RTVSPost2010PropOp40
 70
     1
102
RTVSPost2010Prop41ColorIndex
 90
       18
102
RTVSPost2010Prop41ColorRGB
 90
        0
102
RTVSPost2010PropOp41
 70
     1
102
RTVSPost2010Prop42
 90
       50
102
RTVSPost2010PropOp42
 70
     1
102
RTVSPost2010Prop43
 90
        3
102
RTVSPost2010PropOp43
 70
     1
102
RTVSPost2010Prop44ColorIndex
 90
        5
102
RTVSPost2010Prop44ColorRGB
 90
      255
102
RTVSPost2010PropOp44
 70
     1
102
RTVSPost2010Prop45
280
     0
102
RTVSPost2010PropOp45
 70
     1
102
RTVSPost2010Prop46
 90
       50
102
RTVSPost2010PropOp46
 70
     1
102
RTVSPost2010Prop47
 90
       50
102
RTVSPost2010PropOp47
 70
     1
102
RTVSPost2010Prop48
 90
       50
102
RTVSPost2010PropOp48
 70
     1
102
RTVSPost2010Prop49
280
     0
102
RTVSPost2010PropOp49
 70
     1
102
RTVSPost2010Prop50
 90
       50
102
RTVSPost2010PropOp50
 70
     1
102
RTVSPost2010Prop51ColorIndex
 90
      256
102
RTVSPost2010Prop51ColorRGB
 90
-16777216
102
RTVSPost2010PropOp51
 70
     0
102
RTVSPost2010Prop52
140
1.0
102
RTVSPost2010PropOp52
 70
     0
102
RTVSPost2010Prop53
 90
        2
102
RTVSPost2010PropOp53
 70
     1
102
RTVSPost2010Prop54
  1
strokes_ogs.tif
102
RTVSPost2010PropOp54
 70
     1
102
RTVSPost2010Prop55
280
     0
102
RTVSPost2010PropOp55
 70
     1
102
RTVSPost2010Prop56
140
1.0
102
RTVSPost2010PropOp56
 70
     1
102
RTVSPost2010Prop57
140
1.0
102
RTVSPost2010PropOp57
 70
     1
102
RTVSPropertyOp0
 70
     1
102
RTVSPropertyOp1
 70
     1
102
RTVSPropertyOp2
 70
     1
102
RTVSPropertyOp3
 70
     1
102
RTVSPropertyOp4
 70
     1
102
RTVSPropertyOp5
 70
     1
102
RTVSPropertyOp6
 70
     1
102
RTVSPropertyOp7
 70
     1
102
RTVSPropertyOp8
 70
     1
102
RTVSPropertyOp9
 70
     1
102
RTVSPropertyOp10
 70
     1
102
RTVSPropertyOp11
 70
     1
102
RTVSPropertyOp12
 70
     1
102
RTVSPropertyOp13
 70
     1
102
RTVSPropertyOp14
 70
     1
102
RTVSPropertyOp15
 70
     1
102
RTVSPropertyOp16
 70
     1
102
RTVSPropertyOp17
 70
     1
102
RTVSPropertyOp18
 70
     1
102
RTVSPropertyOp19
 70
     1
102
RTVSPropertyOp20
 70
     1
102
RTVSPropertyOp21
 70
     1
102
RTVSPropertyOp22
 70
     1
102
RTVSPropertyOp23
 70
     1
102
RTVSPropertyOp24
 70
     1
102
RTVSPropertyOp25
 70
     1
102
RTVSPropertyOp26
 70
     1
102
RTVSPropertyOp27
 70
     1
102
RTVSPropertyOp28
 70
     1
102
RTVSPropertyOp29
 70
     1
102
RTVSPropertyOp30
 70
     1
102
RTVSPropertyOp31
 70
     1
102
RTVSPropertyOp32
 70
     1
102
RTVSPropertyOp33
 70
     1
102
RTVSPropertyOp34
 70
     1
102
RTVSPropertyOp35
 70
     1
102
RTVSPropertyOp36
 70
     1
102
RTVSPropertyOp37
 70
     1
102
RTVSPropertyOp38
 70
     1
102
RTVSPropertyOp39
 70
     1
102
RTVSPropertyOp40
 70
     1
102
RTVSPropertyOp41
 70
     1
102
RTVSPropertyOp42
 70
     1
102
RTVSPropertyOp43
 70
     1
102
RTVSPropertyOp44
 70
     1
102
RTVSPropertyOp45
 70
     1
102
RTVSPropertyOp46
 70
     1
102
RTVSPropertyOp47
 70
     1
102
RTVSPropertyOp48
 70
     1
102
RTVSPropertyOp49
 70
     1
102
RTVSPropertyOp50
 70
     1
102
RTVSPropertyOp51
 70
     0
102
RTVSPropertyOp52
 70
     0
102
RTVSPropertyOp53
 70
     1
102
RTVSPropertyOp54
 70
     1
102
RTVSPropertyOp55
 70
     1
102
RTVSPropertyOp56
 70
     1
102
RTVSPropertyOp57
 70
     1
102
RTVSPropertyOp58
 70
     1
102
RTVSPropertyOp59
 70
     1
102
RTVSPropertyOp60
 70
     1
102
RTVSPropertyOp61
 70
     1
102
RTVSPropertyOp62
 70
     1
  0
XRECORD
  5
37FA
102
{ACAD_REACTORS
330
37F9
102
}
330
37F9
100
AcDbXrecord
280
     1
102
RTVSPost2010Prop28
280
     0
102
RTVSPost2010PropOp28
 70
     1
102
RTVSPost2010Prop29
280
     1
102
RTVSPost2010PropOp29
 70
     1
102
RTVSPost2010Prop30
280
     1
102
RTVSPost2010PropOp30
 70
     1
102
RTVSPost2010Prop31
280
     0
102
RTVSPost2010PropOp31
 70
     1
102
RTVSPost2010Prop32
280
     0
102
RTVSPost2010PropOp32
 70
     1
102
RTVSPost2010Prop33
280
     0
102
RTVSPost2010PropOp33
 70
     1
102
RTVSPost2010Prop34
280
     0
102
RTVSPost2010PropOp34
 70
     1
102
RTVSPost2010Prop35
280
     0
102
RTVSPost2010PropOp35
 70
     1
102
RTVSPost2010Prop36
280
     0
102
RTVSPost2010PropOp36
 70
     1
102
RTVSPost2010Prop37
 90
       50
102
RTVSPost2010PropOp37
 70
     1
102
RTVSPost2010Prop38
140
0.0
102
RTVSPost2010PropOp38
 70
     1
102
RTVSPost2010Prop39
140
1.0
102
RTVSPost2010PropOp39
 70
     1
102
RTVSPost2010Prop40
 90
        0
102
RTVSPost2010PropOp40
 70
     1
102
RTVSPost2010Prop41ColorIndex
 90
       18
102
RTVSPost2010Prop41ColorRGB
 90
        0
102
RTVSPost2010PropOp41
 70
     1
102
RTVSPost2010Prop42
 90
       50
102
RTVSPost2010PropOp42
 70
     1
102
RTVSPost2010Prop43
 90
        3
102
RTVSPost2010PropOp43
 70
     1
102
RTVSPost2010Prop44ColorIndex
 90
        5
102
RTVSPost2010Prop44ColorRGB
 90
      255
102
RTVSPost2010PropOp44
 70
     1
102
RTVSPost2010Prop45
280
     0
102
RTVSPost2010PropOp45
 70
     1
102
RTVSPost2010Prop46
 90
       50
102
RTVSPost2010PropOp46
 70
     1
102
RTVSPost2010Prop47
 90
       50
102
RTVSPost2010PropOp47
 70
     1
102
RTVSPost2010Prop48
 90
       50
102
RTVSPost2010PropOp48
 70
     1
102
RTVSPost2010Prop49
280
     0
102
RTVSPost2010PropOp49
 70
     1
102
RTVSPost2010Prop50
 90
       50
102
RTVSPost2010PropOp50
 70
     1
102
RTVSPost2010Prop51ColorIndex
 90
      256
102
RTVSPost2010Prop51ColorRGB
 90
-16777216
102
RTVSPost2010PropOp51
 70
     0
102
RTVSPost2010Prop52
140
1.0
102
RTVSPost2010PropOp52
 70
     0
102
RTVSPost2010Prop53
 90
        2
102
RTVSPost2010PropOp53
 70
     1
102
RTVSPost2010Prop54
  1
strokes_ogs.tif
102
RTVSPost2010PropOp54
 70
     1
102
RTVSPost2010Prop55
280
     0
102
RTVSPost2010PropOp55
 70
     1
102
RTVSPost2010Prop56
140
1.0
102
RTVSPost2010PropOp56
 70
     1
102
RTVSPost2010Prop57
140
1.0
102
RTVSPost2010PropOp57
 70
     1
102
RTVSPropertyOp0
 70
     1
102
RTVSPropertyOp1
 70
     1
102
RTVSPropertyOp2
 70
     1
102
RTVSPropertyOp3
 70
     1
102
RTVSPropertyOp4
 70
     1
102
RTVSPropertyOp5
 70
     1
102
RTVSPropertyOp6
 70
     1
102
RTVSPropertyOp7
 70
     1
102
RTVSPropertyOp8
 70
     1
102
RTVSPropertyOp9
 70
     1
102
RTVSPropertyOp10
 70
     1
102
RTVSPropertyOp11
 70
     1
102
RTVSPropertyOp12
 70
     1
102
RTVSPropertyOp13
 70
     1
102
RTVSPropertyOp14
 70
     1
102
RTVSPropertyOp15
 70
     1
102
RTVSPropertyOp16
 70
     1
102
RTVSPropertyOp17
 70
     1
102
RTVSPropertyOp18
 70
     1
102
RTVSPropertyOp19
 70
     1
102
RTVSPropertyOp20
 70
     1
102
RTVSPropertyOp21
 70
     1
102
RTVSPropertyOp22
 70
     1
102
RTVSPropertyOp23
 70
     1
102
RTVSPropertyOp24
 70
     1
102
RTVSPropertyOp25
 70
     1
102
RTVSPropertyOp26
 70
     1
102
RTVSPropertyOp27
 70
     1
102
RTVSPropertyOp28
 70
     1
102
RTVSPropertyOp29
 70
     1
102
RTVSPropertyOp30
 70
     1
102
RTVSPropertyOp31
 70
     1
102
RTVSPropertyOp32
 70
     1
102
RTVSPropertyOp33
 70
     1
102
RTVSPropertyOp34
 70
     1
102
RTVSPropertyOp35
 70
     1
102
RTVSPropertyOp36
 70
     1
102
RTVSPropertyOp37
 70
     1
102
RTVSPropertyOp38
 70
     1
102
RTVSPropertyOp39
 70
     1
102
RTVSPropertyOp40
 70
     1
102
RTVSPropertyOp41
 70
     1
102
RTVSPropertyOp42
 70
     1
102
RTVSPropertyOp43
 70
     1
102
RTVSPropertyOp44
 70
     1
102
RTVSPropertyOp45
 70
     1
102
RTVSPropertyOp46
 70
     1
102
RTVSPropertyOp47
 70
     1
102
RTVSPropertyOp48
 70
     1
102
RTVSPropertyOp49
 70
     1
102
RTVSPropertyOp50
 70
     1
102
RTVSPropertyOp51
 70
     0
102
RTVSPropertyOp52
 70
     0
102
RTVSPropertyOp53
 70
     1
102
RTVSPropertyOp54
 70
     1
102
RTVSPropertyOp55
 70
     1
102
RTVSPropertyOp56
 70
     1
102
RTVSPropertyOp57
 70
     1
102
RTVSPropertyOp58
 70
     1
102
RTVSPropertyOp59
 70
     1
102
RTVSPropertyOp60
 70
     1
102
RTVSPropertyOp61
 70
     1
102
RTVSPropertyOp62
 70
     1
  0
XRECORD
  5
37F8
102
{ACAD_REACTORS
330
37F7
102
}
330
37F7
100
AcDbXrecord
280
     1
102
RTVSPost2010Prop28
280
     0
102
RTVSPost2010PropOp28
 70
     1
102
RTVSPost2010Prop29
280
     1
102
RTVSPost2010PropOp29
 70
     1
102
RTVSPost2010Prop30
280
     1
102
RTVSPost2010PropOp30
 70
     1
102
RTVSPost2010Prop31
280
     0
102
RTVSPost2010PropOp31
 70
     1
102
RTVSPost2010Prop32
280
     0
102
RTVSPost2010PropOp32
 70
     1
102
RTVSPost2010Prop33
280
     0
102
RTVSPost2010PropOp33
 70
     1
102
RTVSPost2010Prop34
280
     0
102
RTVSPost2010PropOp34
 70
     1
102
RTVSPost2010Prop35
280
     0
102
RTVSPost2010PropOp35
 70
     1
102
RTVSPost2010Prop36
280
     0
102
RTVSPost2010PropOp36
 70
     1
102
RTVSPost2010Prop37
 90
       50
102
RTVSPost2010PropOp37
 70
     1
102
RTVSPost2010Prop38
140
0.0
102
RTVSPost2010PropOp38
 70
     1
102
RTVSPost2010Prop39
140
1.0
102
RTVSPost2010PropOp39
 70
     1
102
RTVSPost2010Prop40
 90
        0
102
RTVSPost2010PropOp40
 70
     1
102
RTVSPost2010Prop41ColorIndex
 90
       18
102
RTVSPost2010Prop41ColorRGB
 90
        0
102
RTVSPost2010PropOp41
 70
     1
102
RTVSPost2010Prop42
 90
       50
102
RTVSPost2010PropOp42
 70
     1
102
RTVSPost2010Prop43
 90
        3
102
RTVSPost2010PropOp43
 70
     1
102
RTVSPost2010Prop44ColorIndex
 90
        5
102
RTVSPost2010Prop44ColorRGB
 90
      255
102
RTVSPost2010PropOp44
 70
     1
102
RTVSPost2010Prop45
280
     0
102
RTVSPost2010PropOp45
 70
     1
102
RTVSPost2010Prop46
 90
       50
102
RTVSPost2010PropOp46
 70
     1
102
RTVSPost2010Prop47
 90
       50
102
RTVSPost2010PropOp47
 70
     1
102
RTVSPost2010Prop48
 90
       50
102
RTVSPost2010PropOp48
 70
     1
102
RTVSPost2010Prop49
280
     0
102
RTVSPost2010PropOp49
 70
     1
102
RTVSPost2010Prop50
 90
       50
102
RTVSPost2010PropOp50
 70
     1
102
RTVSPost2010Prop51ColorIndex
 90
      256
102
RTVSPost2010Prop51ColorRGB
 90
-16777216
102
RTVSPost2010PropOp51
 70
     0
102
RTVSPost2010Prop52
140
1.0
102
RTVSPost2010PropOp52
 70
     0
102
RTVSPost2010Prop53
 90
        2
102
RTVSPost2010PropOp53
 70
     1
102
RTVSPost2010Prop54
  1
strokes_ogs.tif
102
RTVSPost2010PropOp54
 70
     1
102
RTVSPost2010Prop55
280
     0
102
RTVSPost2010PropOp55
 70
     1
102
RTVSPost2010Prop56
140
1.0
102
RTVSPost2010PropOp56
 70
     1
102
RTVSPost2010Prop57
140
1.0
102
RTVSPost2010PropOp57
 70
     1
102
RTVSPropertyOp0
 70
     1
102
RTVSPropertyOp1
 70
     1
102
RTVSPropertyOp2
 70
     1
102
RTVSPropertyOp3
 70
     1
102
RTVSPropertyOp4
 70
     1
102
RTVSPropertyOp5
 70
     1
102
RTVSPropertyOp6
 70
     1
102
RTVSPropertyOp7
 70
     1
102
RTVSPropertyOp8
 70
     1
102
RTVSPropertyOp9
 70
     1
102
RTVSPropertyOp10
 70
     1
102
RTVSPropertyOp11
 70
     1
102
RTVSPropertyOp12
 70
     1
102
RTVSPropertyOp13
 70
     1
102
RTVSPropertyOp14
 70
     1
102
RTVSPropertyOp15
 70
     1
102
RTVSPropertyOp16
 70
     1
102
RTVSPropertyOp17
 70
     1
102
RTVSPropertyOp18
 70
     1
102
RTVSPropertyOp19
 70
     1
102
RTVSPropertyOp20
 70
     1
102
RTVSPropertyOp21
 70
     1
102
RTVSPropertyOp22
 70
     1
102
RTVSPropertyOp23
 70
     1
102
RTVSPropertyOp24
 70
     1
102
RTVSPropertyOp25
 70
     1
102
RTVSPropertyOp26
 70
     1
102
RTVSPropertyOp27
 70
     1
102
RTVSPropertyOp28
 70
     1
102
RTVSPropertyOp29
 70
     1
102
RTVSPropertyOp30
 70
     1
102
RTVSPropertyOp31
 70
     1
102
RTVSPropertyOp32
 70
     1
102
RTVSPropertyOp33
 70
     1
102
RTVSPropertyOp34
 70
     1
102
RTVSPropertyOp35
 70
     1
102
RTVSPropertyOp36
 70
     1
102
RTVSPropertyOp37
 70
     1
102
RTVSPropertyOp38
 70
     1
102
RTVSPropertyOp39
 70
     1
102
RTVSPropertyOp40
 70
     1
102
RTVSPropertyOp41
 70
     1
102
RTVSPropertyOp42
 70
     1
102
RTVSPropertyOp43
 70
     1
102
RTVSPropertyOp44
 70
     1
102
RTVSPropertyOp45
 70
     1
102
RTVSPropertyOp46
 70
     1
102
RTVSPropertyOp47
 70
     1
102
RTVSPropertyOp48
 70
     1
102
RTVSPropertyOp49
 70
     1
102
RTVSPropertyOp50
 70
     1
102
RTVSPropertyOp51
 70
     0
102
RTVSPropertyOp52
 70
     0
102
RTVSPropertyOp53
 70
     1
102
RTVSPropertyOp54
 70
     1
102
RTVSPropertyOp55
 70
     1
102
RTVSPropertyOp56
 70
     1
102
RTVSPropertyOp57
 70
     1
102
RTVSPropertyOp58
 70
     1
102
RTVSPropertyOp59
 70
     1
102
RTVSPropertyOp60
 70
     1
102
RTVSPropertyOp61
 70
     1
102
RTVSPropertyOp62
 70
     1
  0
XRECORD
  5
37F2
102
{ACAD_REACTORS
330
37F1
102
}
330
37F1
100
AcDbXrecord
280
     1
102
RTVSPost2010Prop28
280
     0
102
RTVSPost2010PropOp28
 70
     1
102
RTVSPost2010Prop29
280
     1
102
RTVSPost2010PropOp29
 70
     1
102
RTVSPost2010Prop30
280
     1
102
RTVSPost2010PropOp30
 70
     1
102
RTVSPost2010Prop31
280
     0
102
RTVSPost2010PropOp31
 70
     1
102
RTVSPost2010Prop32
280
     0
102
RTVSPost2010PropOp32
 70
     1
102
RTVSPost2010Prop33
280
     0
102
RTVSPost2010PropOp33
 70
     1
102
RTVSPost2010Prop34
280
     0
102
RTVSPost2010PropOp34
 70
     1
102
RTVSPost2010Prop35
280
     0
102
RTVSPost2010PropOp35
 70
     1
102
RTVSPost2010Prop36
280
     0
102
RTVSPost2010PropOp36
 70
     1
102
RTVSPost2010Prop37
 90
       50
102
RTVSPost2010PropOp37
 70
     1
102
RTVSPost2010Prop38
140
0.0
102
RTVSPost2010PropOp38
 70
     1
102
RTVSPost2010Prop39
140
1.0
102
RTVSPost2010PropOp39
 70
     1
102
RTVSPost2010Prop40
 90
        0
102
RTVSPost2010PropOp40
 70
     1
102
RTVSPost2010Prop41ColorIndex
 90
       18
102
RTVSPost2010Prop41ColorRGB
 90
        0
102
RTVSPost2010PropOp41
 70
     1
102
RTVSPost2010Prop42
 90
       50
102
RTVSPost2010PropOp42
 70
     1
102
RTVSPost2010Prop43
 90
        3
102
RTVSPost2010PropOp43
 70
     1
102
RTVSPost2010Prop44ColorIndex
 90
        5
102
RTVSPost2010Prop44ColorRGB
 90
      255
102
RTVSPost2010PropOp44
 70
     1
102
RTVSPost2010Prop45
280
     0
102
RTVSPost2010PropOp45
 70
     1
102
RTVSPost2010Prop46
 90
       50
102
RTVSPost2010PropOp46
 70
     1
102
RTVSPost2010Prop47
 90
       50
102
RTVSPost2010PropOp47
 70
     1
102
RTVSPost2010Prop48
 90
       50
102
RTVSPost2010PropOp48
 70
     1
102
RTVSPost2010Prop49
280
     0
102
RTVSPost2010PropOp49
 70
     1
102
RTVSPost2010Prop50
 90
       50
102
RTVSPost2010PropOp50
 70
     1
102
RTVSPost2010Prop51ColorIndex
 90
      256
102
RTVSPost2010Prop51ColorRGB
 90
-16777216
102
RTVSPost2010PropOp51
 70
     0
102
RTVSPost2010Prop52
140
1.0
102
RTVSPost2010PropOp52
 70
     0
102
RTVSPost2010Prop53
 90
        2
102
RTVSPost2010PropOp53
 70
     1
102
RTVSPost2010Prop54
  1
strokes_ogs.tif
102
RTVSPost2010PropOp54
 70
     1
102
RTVSPost2010Prop55
280
     0
102
RTVSPost2010PropOp55
 70
     1
102
RTVSPost2010Prop56
140
1.0
102
RTVSPost2010PropOp56
 70
     1
102
RTVSPost2010Prop57
140
1.0
102
RTVSPost2010PropOp57
 70
     1
102
RTVSPropertyOp0
 70
     1
102
RTVSPropertyOp1
 70
     1
102
RTVSPropertyOp2
 70
     1
102
RTVSPropertyOp3
 70
     1
102
RTVSPropertyOp4
 70
     1
102
RTVSPropertyOp5
 70
     1
102
RTVSPropertyOp6
 70
     1
102
RTVSPropertyOp7
 70
     1
102
RTVSPropertyOp8
 70
     1
102
RTVSPropertyOp9
 70
     1
102
RTVSPropertyOp10
 70
     1
102
RTVSPropertyOp11
 70
     1
102
RTVSPropertyOp12
 70
     1
102
RTVSPropertyOp13
 70
     1
102
RTVSPropertyOp14
 70
     1
102
RTVSPropertyOp15
 70
     1
102
RTVSPropertyOp16
 70
     1
102
RTVSPropertyOp17
 70
     1
102
RTVSPropertyOp18
 70
     1
102
RTVSPropertyOp19
 70
     1
102
RTVSPropertyOp20
 70
     1
102
RTVSPropertyOp21
 70
     1
102
RTVSPropertyOp22
 70
     1
102
RTVSPropertyOp23
 70
     1
102
RTVSPropertyOp24
 70
     1
102
RTVSPropertyOp25
 70
     1
102
RTVSPropertyOp26
 70
     1
102
RTVSPropertyOp27
 70
     1
102
RTVSPropertyOp28
 70
     1
102
RTVSPropertyOp29
 70
     1
102
RTVSPropertyOp30
 70
     1
102
RTVSPropertyOp31
 70
     1
102
RTVSPropertyOp32
 70
     1
102
RTVSPropertyOp33
 70
     1
102
RTVSPropertyOp34
 70
     1
102
RTVSPropertyOp35
 70
     1
102
RTVSPropertyOp36
 70
     1
102
RTVSPropertyOp37
 70
     1
102
RTVSPropertyOp38
 70
     1
102
RTVSPropertyOp39
 70
     1
102
RTVSPropertyOp40
 70
     1
102
RTVSPropertyOp41
 70
     1
102
RTVSPropertyOp42
 70
     1
102
RTVSPropertyOp43
 70
     1
102
RTVSPropertyOp44
 70
     1
102
RTVSPropertyOp45
 70
     1
102
RTVSPropertyOp46
 70
     1
102
RTVSPropertyOp47
 70
     1
102
RTVSPropertyOp48
 70
     1
102
RTVSPropertyOp49
 70
     1
102
RTVSPropertyOp50
 70
     1
102
RTVSPropertyOp51
 70
     0
102
RTVSPropertyOp52
 70
     0
102
RTVSPropertyOp53
 70
     1
102
RTVSPropertyOp54
 70
     1
102
RTVSPropertyOp55
 70
     1
102
RTVSPropertyOp56
 70
     1
102
RTVSPropertyOp57
 70
     1
102
RTVSPropertyOp58
 70
     1
102
RTVSPropertyOp59
 70
     1
102
RTVSPropertyOp60
 70
     1
102
RTVSPropertyOp61
 70
     1
102
RTVSPropertyOp62
 70
     1
  0
XRECORD
  5
37F4
102
{ACAD_REACTORS
330
37F3
102
}
330
37F3
100
AcDbXrecord
280
     1
102
RTVSPost2010Prop28
280
     0
102
RTVSPost2010PropOp28
 70
     1
102
RTVSPost2010Prop29
280
     1
102
RTVSPost2010PropOp29
 70
     1
102
RTVSPost2010Prop30
280
     1
102
RTVSPost2010PropOp30
 70
     1
102
RTVSPost2010Prop31
280
     0
102
RTVSPost2010PropOp31
 70
     1
102
RTVSPost2010Prop32
280
     0
102
RTVSPost2010PropOp32
 70
     1
102
RTVSPost2010Prop33
280
     0
102
RTVSPost2010PropOp33
 70
     1
102
RTVSPost2010Prop34
280
     0
102
RTVSPost2010PropOp34
 70
     1
102
RTVSPost2010Prop35
280
     0
102
RTVSPost2010PropOp35
 70
     1
102
RTVSPost2010Prop36
280
     0
102
RTVSPost2010PropOp36
 70
     1
102
RTVSPost2010Prop37
 90
       50
102
RTVSPost2010PropOp37
 70
     1
102
RTVSPost2010Prop38
140
0.0
102
RTVSPost2010PropOp38
 70
     1
102
RTVSPost2010Prop39
140
1.0
102
RTVSPost2010PropOp39
 70
     1
102
RTVSPost2010Prop40
 90
        0
102
RTVSPost2010PropOp40
 70
     1
102
RTVSPost2010Prop41ColorIndex
 90
       18
102
RTVSPost2010Prop41ColorRGB
 90
        0
102
RTVSPost2010PropOp41
 70
     1
102
RTVSPost2010Prop42
 90
       50
102
RTVSPost2010PropOp42
 70
     1
102
RTVSPost2010Prop43
 90
        3
102
RTVSPost2010PropOp43
 70
     1
102
RTVSPost2010Prop44ColorIndex
 90
        5
102
RTVSPost2010Prop44ColorRGB
 90
      255
102
RTVSPost2010PropOp44
 70
     1
102
RTVSPost2010Prop45
280
     0
102
RTVSPost2010PropOp45
 70
     1
102
RTVSPost2010Prop46
 90
       50
102
RTVSPost2010PropOp46
 70
     1
102
RTVSPost2010Prop47
 90
       50
102
RTVSPost2010PropOp47
 70
     1
102
RTVSPost2010Prop48
 90
       50
102
RTVSPost2010PropOp48
 70
     1
102
RTVSPost2010Prop49
280
     0
102
RTVSPost2010PropOp49
 70
     1
102
RTVSPost2010Prop50
 90
       50
102
RTVSPost2010PropOp50
 70
     1
102
RTVSPost2010Prop51ColorIndex
 90
      256
102
RTVSPost2010Prop51ColorRGB
 90
-16777216
102
RTVSPost2010PropOp51
 70
     0
102
RTVSPost2010Prop52
140
1.0
102
RTVSPost2010PropOp52
 70
     0
102
RTVSPost2010Prop53
 90
        2
102
RTVSPost2010PropOp53
 70
     1
102
RTVSPost2010Prop54
  1
strokes_ogs.tif
102
RTVSPost2010PropOp54
 70
     1
102
RTVSPost2010Prop55
280
     0
102
RTVSPost2010PropOp55
 70
     1
102
RTVSPost2010Prop56
140
1.0
102
RTVSPost2010PropOp56
 70
     1
102
RTVSPost2010Prop57
140
1.0
102
RTVSPost2010PropOp57
 70
     1
102
RTVSPropertyOp0
 70
     1
102
RTVSPropertyOp1
 70
     1
102
RTVSPropertyOp2
 70
     1
102
RTVSPropertyOp3
 70
     1
102
RTVSPropertyOp4
 70
     1
102
RTVSPropertyOp5
 70
     1
102
RTVSPropertyOp6
 70
     1
102
RTVSPropertyOp7
 70
     1
102
RTVSPropertyOp8
 70
     1
102
RTVSPropertyOp9
 70
     1
102
RTVSPropertyOp10
 70
     1
102
RTVSPropertyOp11
 70
     1
102
RTVSPropertyOp12
 70
     1
102
RTVSPropertyOp13
 70
     1
102
RTVSPropertyOp14
 70
     1
102
RTVSPropertyOp15
 70
     1
102
RTVSPropertyOp16
 70
     1
102
RTVSPropertyOp17
 70
     1
102
RTVSPropertyOp18
 70
     1
102
RTVSPropertyOp19
 70
     1
102
RTVSPropertyOp20
 70
     1
102
RTVSPropertyOp21
 70
     1
102
RTVSPropertyOp22
 70
     1
102
RTVSPropertyOp23
 70
     1
102
RTVSPropertyOp24
 70
     1
102
RTVSPropertyOp25
 70
     1
102
RTVSPropertyOp26
 70
     1
102
RTVSPropertyOp27
 70
     1
102
RTVSPropertyOp28
 70
     1
102
RTVSPropertyOp29
 70
     1
102
RTVSPropertyOp30
 70
     1
102
RTVSPropertyOp31
 70
     1
102
RTVSPropertyOp32
 70
     1
102
RTVSPropertyOp33
 70
     1
102
RTVSPropertyOp34
 70
     1
102
RTVSPropertyOp35
 70
     1
102
RTVSPropertyOp36
 70
     1
102
RTVSPropertyOp37
 70
     1
102
RTVSPropertyOp38
 70
     1
102
RTVSPropertyOp39
 70
     1
102
RTVSPropertyOp40
 70
     1
102
RTVSPropertyOp41
 70
     1
102
RTVSPropertyOp42
 70
     1
102
RTVSPropertyOp43
 70
     1
102
RTVSPropertyOp44
 70
     1
102
RTVSPropertyOp45
 70
     1
102
RTVSPropertyOp46
 70
     1
102
RTVSPropertyOp47
 70
     1
102
RTVSPropertyOp48
 70
     1
102
RTVSPropertyOp49
 70
     1
102
RTVSPropertyOp50
 70
     1
102
RTVSPropertyOp51
 70
     0
102
RTVSPropertyOp52
 70
     0
102
RTVSPropertyOp53
 70
     1
102
RTVSPropertyOp54
 70
     1
102
RTVSPropertyOp55
 70
     1
102
RTVSPropertyOp56
 70
     1
102
RTVSPropertyOp57
 70
     1
102
RTVSPropertyOp58
 70
     1
102
RTVSPropertyOp59
 70
     1
102
RTVSPropertyOp60
 70
     1
102
RTVSPropertyOp61
 70
     1
102
RTVSPropertyOp62
 70
     1
  0
XRECORD
  5
37E2
102
{ACAD_REACTORS
330
37E1
102
}
330
37E1
100
AcDbXrecord
280
     1
102
RTVSPost2010Prop28
280
     0
102
RTVSPost2010PropOp28
 70
     1
102
RTVSPost2010Prop29
280
     1
102
RTVSPost2010PropOp29
 70
     1
102
RTVSPost2010Prop30
280
     1
102
RTVSPost2010PropOp30
 70
     1
102
RTVSPost2010Prop31
280
     0
102
RTVSPost2010PropOp31
 70
     1
102
RTVSPost2010Prop32
280
     0
102
RTVSPost2010PropOp32
 70
     1
102
RTVSPost2010Prop33
280
     0
102
RTVSPost2010PropOp33
 70
     1
102
RTVSPost2010Prop34
280
     0
102
RTVSPost2010PropOp34
 70
     1
102
RTVSPost2010Prop35
280
     0
102
RTVSPost2010PropOp35
 70
     1
102
RTVSPost2010Prop36
280
     0
102
RTVSPost2010PropOp36
 70
     1
102
RTVSPost2010Prop37
 90
       50
102
RTVSPost2010PropOp37
 70
     1
102
RTVSPost2010Prop38
140
0.0
102
RTVSPost2010PropOp38
 70
     1
102
RTVSPost2010Prop39
140
1.0
102
RTVSPost2010PropOp39
 70
     1
102
RTVSPost2010Prop40
 90
        0
102
RTVSPost2010PropOp40
 70
     1
102
RTVSPost2010Prop41ColorIndex
 90
       18
102
RTVSPost2010Prop41ColorRGB
 90
        0
102
RTVSPost2010PropOp41
 70
     1
102
RTVSPost2010Prop42
 90
       50
102
RTVSPost2010PropOp42
 70
     1
102
RTVSPost2010Prop43
 90
        3
102
RTVSPost2010PropOp43
 70
     1
102
RTVSPost2010Prop44ColorIndex
 90
        5
102
RTVSPost2010Prop44ColorRGB
 90
      255
102
RTVSPost2010PropOp44
 70
     1
102
RTVSPost2010Prop45
280
     0
102
RTVSPost2010PropOp45
 70
     1
102
RTVSPost2010Prop46
 90
       50
102
RTVSPost2010PropOp46
 70
     1
102
RTVSPost2010Prop47
 90
       50
102
RTVSPost2010PropOp47
 70
     1
102
RTVSPost2010Prop48
 90
       50
102
RTVSPost2010PropOp48
 70
     1
102
RTVSPost2010Prop49
280
     0
102
RTVSPost2010PropOp49
 70
     1
102
RTVSPost2010Prop50
 90
       50
102
RTVSPost2010PropOp50
 70
     1
102
RTVSPost2010Prop51ColorIndex
 90
      256
102
RTVSPost2010Prop51ColorRGB
 90
-16777216
102
RTVSPost2010PropOp51
 70
     0
102
RTVSPost2010Prop52
140
1.0
102
RTVSPost2010PropOp52
 70
     0
102
RTVSPost2010Prop53
 90
        2
102
RTVSPost2010PropOp53
 70
     1
102
RTVSPost2010Prop54
  1
strokes_ogs.tif
102
RTVSPost2010PropOp54
 70
     1
102
RTVSPost2010Prop55
280
     0
102
RTVSPost2010PropOp55
 70
     1
102
RTVSPost2010Prop56
140
1.0
102
RTVSPost2010PropOp56
 70
     1
102
RTVSPost2010Prop57
140
1.0
102
RTVSPost2010PropOp57
 70
     1
102
RTVSPropertyOp0
 70
     1
102
RTVSPropertyOp1
 70
     1
102
RTVSPropertyOp2
 70
     1
102
RTVSPropertyOp3
 70
     1
102
RTVSPropertyOp4
 70
     1
102
RTVSPropertyOp5
 70
     1
102
RTVSPropertyOp6
 70
     1
102
RTVSPropertyOp7
 70
     1
102
RTVSPropertyOp8
 70
     1
102
RTVSPropertyOp9
 70
     1
102
RTVSPropertyOp10
 70
     1
102
RTVSPropertyOp11
 70
     1
102
RTVSPropertyOp12
 70
     1
102
RTVSPropertyOp13
 70
     1
102
RTVSPropertyOp14
 70
     1
102
RTVSPropertyOp15
 70
     1
102
RTVSPropertyOp16
 70
     1
102
RTVSPropertyOp17
 70
     1
102
RTVSPropertyOp18
 70
     1
102
RTVSPropertyOp19
 70
     1
102
RTVSPropertyOp20
 70
     1
102
RTVSPropertyOp21
 70
     1
102
RTVSPropertyOp22
 70
     1
102
RTVSPropertyOp23
 70
     1
102
RTVSPropertyOp24
 70
     1
102
RTVSPropertyOp25
 70
     1
102
RTVSPropertyOp26
 70
     1
102
RTVSPropertyOp27
 70
     1
102
RTVSPropertyOp28
 70
     1
102
RTVSPropertyOp29
 70
     1
102
RTVSPropertyOp30
 70
     1
102
RTVSPropertyOp31
 70
     1
102
RTVSPropertyOp32
 70
     1
102
RTVSPropertyOp33
 70
     1
102
RTVSPropertyOp34
 70
     1
102
RTVSPropertyOp35
 70
     1
102
RTVSPropertyOp36
 70
     1
102
RTVSPropertyOp37
 70
     1
102
RTVSPropertyOp38
 70
     1
102
RTVSPropertyOp39
 70
     1
102
RTVSPropertyOp40
 70
     1
102
RTVSPropertyOp41
 70
     1
102
RTVSPropertyOp42
 70
     1
102
RTVSPropertyOp43
 70
     1
102
RTVSPropertyOp44
 70
     1
102
RTVSPropertyOp45
 70
     1
102
RTVSPropertyOp46
 70
     1
102
RTVSPropertyOp47
 70
     1
102
RTVSPropertyOp48
 70
     1
102
RTVSPropertyOp49
 70
     1
102
RTVSPropertyOp50
 70
     1
102
RTVSPropertyOp51
 70
     0
102
RTVSPropertyOp52
 70
     0
102
RTVSPropertyOp53
 70
     1
102
RTVSPropertyOp54
 70
     1
102
RTVSPropertyOp55
 70
     1
102
RTVSPropertyOp56
 70
     1
102
RTVSPropertyOp57
 70
     1
102
RTVSPropertyOp58
 70
     1
102
RTVSPropertyOp59
 70
     1
102
RTVSPropertyOp60
 70
     1
102
RTVSPropertyOp61
 70
     1
102
RTVSPropertyOp62
 70
     1
  0
XRECORD
  5
37D6
102
{ACAD_REACTORS
330
37D5
102
}
330
37D5
100
AcDbXrecord
280
     1
102
RTVSPost2010Prop28
280
     0
102
RTVSPost2010PropOp28
 70
     1
102
RTVSPost2010Prop29
280
     1
102
RTVSPost2010PropOp29
 70
     1
102
RTVSPost2010Prop30
280
     1
102
RTVSPost2010PropOp30
 70
     1
102
RTVSPost2010Prop31
280
     0
102
RTVSPost2010PropOp31
 70
     1
102
RTVSPost2010Prop32
280
     0
102
RTVSPost2010PropOp32
 70
     1
102
RTVSPost2010Prop33
280
     0
102
RTVSPost2010PropOp33
 70
     1
102
RTVSPost2010Prop34
280
     0
102
RTVSPost2010PropOp34
 70
     1
102
RTVSPost2010Prop35
280
     0
102
RTVSPost2010PropOp35
 70
     1
102
RTVSPost2010Prop36
280
     0
102
RTVSPost2010PropOp36
 70
     1
102
RTVSPost2010Prop37
 90
       50
102
RTVSPost2010PropOp37
 70
     1
102
RTVSPost2010Prop38
140
0.0
102
RTVSPost2010PropOp38
 70
     1
102
RTVSPost2010Prop39
140
1.0
102
RTVSPost2010PropOp39
 70
     1
102
RTVSPost2010Prop40
 90
        0
102
RTVSPost2010PropOp40
 70
     1
102
RTVSPost2010Prop41ColorIndex
 90
       18
102
RTVSPost2010Prop41ColorRGB
 90
        0
102
RTVSPost2010PropOp41
 70
     1
102
RTVSPost2010Prop42
 90
       50
102
RTVSPost2010PropOp42
 70
     1
102
RTVSPost2010Prop43
 90
        3
102
RTVSPost2010PropOp43
 70
     1
102
RTVSPost2010Prop44ColorIndex
 90
        5
102
RTVSPost2010Prop44ColorRGB
 90
      255
102
RTVSPost2010PropOp44
 70
     1
102
RTVSPost2010Prop45
280
     0
102
RTVSPost2010PropOp45
 70
     1
102
RTVSPost2010Prop46
 90
       50
102
RTVSPost2010PropOp46
 70
     1
102
RTVSPost2010Prop47
 90
       50
102
RTVSPost2010PropOp47
 70
     1
102
RTVSPost2010Prop48
 90
       50
102
RTVSPost2010PropOp48
 70
     1
102
RTVSPost2010Prop49
280
     0
102
RTVSPost2010PropOp49
 70
     1
102
RTVSPost2010Prop50
 90
       50
102
RTVSPost2010PropOp50
 70
     1
102
RTVSPost2010Prop51ColorIndex
 90
      256
102
RTVSPost2010Prop51ColorRGB
 90
-16777216
102
RTVSPost2010PropOp51
 70
     0
102
RTVSPost2010Prop52
140
1.0
102
RTVSPost2010PropOp52
 70
     0
102
RTVSPost2010Prop53
 90
        2
102
RTVSPost2010PropOp53
 70
     1
102
RTVSPost2010Prop54
  1
strokes_ogs.tif
102
RTVSPost2010PropOp54
 70
     1
102
RTVSPost2010Prop55
280
     0
102
RTVSPost2010PropOp55
 70
     1
102
RTVSPost2010Prop56
140
1.0
102
RTVSPost2010PropOp56
 70
     1
102
RTVSPost2010Prop57
140
1.0
102
RTVSPost2010PropOp57
 70
     1
102
RTVSPropertyOp0
 70
     1
102
RTVSPropertyOp1
 70
     1
102
RTVSPropertyOp2
 70
     1
102
RTVSPropertyOp3
 70
     1
102
RTVSPropertyOp4
 70
     1
102
RTVSPropertyOp5
 70
     1
102
RTVSPropertyOp6
 70
     1
102
RTVSPropertyOp7
 70
     1
102
RTVSPropertyOp8
 70
     1
102
RTVSPropertyOp9
 70
     1
102
RTVSPropertyOp10
 70
     1
102
RTVSPropertyOp11
 70
     1
102
RTVSPropertyOp12
 70
     1
102
RTVSPropertyOp13
 70
     1
102
RTVSPropertyOp14
 70
     1
102
RTVSPropertyOp15
 70
     1
102
RTVSPropertyOp16
 70
     1
102
RTVSPropertyOp17
 70
     1
102
RTVSPropertyOp18
 70
     1
102
RTVSPropertyOp19
 70
     1
102
RTVSPropertyOp20
 70
     1
102
RTVSPropertyOp21
 70
     1
102
RTVSPropertyOp22
 70
     1
102
RTVSPropertyOp23
 70
     1
102
RTVSPropertyOp24
 70
     1
102
RTVSPropertyOp25
 70
     1
102
RTVSPropertyOp26
 70
     1
102
RTVSPropertyOp27
 70
     1
102
RTVSPropertyOp28
 70
     1
102
RTVSPropertyOp29
 70
     1
102
RTVSPropertyOp30
 70
     1
102
RTVSPropertyOp31
 70
     1
102
RTVSPropertyOp32
 70
     1
102
RTVSPropertyOp33
 70
     1
102
RTVSPropertyOp34
 70
     1
102
RTVSPropertyOp35
 70
     1
102
RTVSPropertyOp36
 70
     1
102
RTVSPropertyOp37
 70
     1
102
RTVSPropertyOp38
 70
     1
102
RTVSPropertyOp39
 70
     1
102
RTVSPropertyOp40
 70
     1
102
RTVSPropertyOp41
 70
     1
102
RTVSPropertyOp42
 70
     1
102
RTVSPropertyOp43
 70
     1
102
RTVSPropertyOp44
 70
     1
102
RTVSPropertyOp45
 70
     1
102
RTVSPropertyOp46
 70
     1
102
RTVSPropertyOp47
 70
     1
102
RTVSPropertyOp48
 70
     1
102
RTVSPropertyOp49
 70
     1
102
RTVSPropertyOp50
 70
     1
102
RTVSPropertyOp51
 70
     0
102
RTVSPropertyOp52
 70
     0
102
RTVSPropertyOp53
 70
     1
102
RTVSPropertyOp54
 70
     1
102
RTVSPropertyOp55
 70
     1
102
RTVSPropertyOp56
 70
     1
102
RTVSPropertyOp57
 70
     1
102
RTVSPropertyOp58
 70
     1
102
RTVSPropertyOp59
 70
     1
102
RTVSPropertyOp60
 70
     1
102
RTVSPropertyOp61
 70
     1
102
RTVSPropertyOp62
 70
     1
  0
XRECORD
  5
37F6
102
{ACAD_REACTORS
330
37F5
102
}
330
37F5
100
AcDbXrecord
280
     1
102
RTVSPost2010Prop28
280
     0
102
RTVSPost2010PropOp28
 70
     1
102
RTVSPost2010Prop29
280
     1
102
RTVSPost2010PropOp29
 70
     1
102
RTVSPost2010Prop30
280
     1
102
RTVSPost2010PropOp30
 70
     1
102
RTVSPost2010Prop31
280
     0
102
RTVSPost2010PropOp31
 70
     1
102
RTVSPost2010Prop32
280
     0
102
RTVSPost2010PropOp32
 70
     1
102
RTVSPost2010Prop33
280
     0
102
RTVSPost2010PropOp33
 70
     1
102
RTVSPost2010Prop34
280
     0
102
RTVSPost2010PropOp34
 70
     1
102
RTVSPost2010Prop35
280
     0
102
RTVSPost2010PropOp35
 70
     1
102
RTVSPost2010Prop36
280
     0
102
RTVSPost2010PropOp36
 70
     1
102
RTVSPost2010Prop37
 90
       50
102
RTVSPost2010PropOp37
 70
     1
102
RTVSPost2010Prop38
140
0.0
102
RTVSPost2010PropOp38
 70
     1
102
RTVSPost2010Prop39
140
1.0
102
RTVSPost2010PropOp39
 70
     1
102
RTVSPost2010Prop40
 90
        0
102
RTVSPost2010PropOp40
 70
     1
102
RTVSPost2010Prop41ColorIndex
 90
       18
102
RTVSPost2010Prop41ColorRGB
 90
        0
102
RTVSPost2010PropOp41
 70
     1
102
RTVSPost2010Prop42
 90
       50
102
RTVSPost2010PropOp42
 70
     1
102
RTVSPost2010Prop43
 90
        3
102
RTVSPost2010PropOp43
 70
     1
102
RTVSPost2010Prop44ColorIndex
 90
        5
102
RTVSPost2010Prop44ColorRGB
 90
      255
102
RTVSPost2010PropOp44
 70
     1
102
RTVSPost2010Prop45
280
     0
102
RTVSPost2010PropOp45
 70
     1
102
RTVSPost2010Prop46
 90
       50
102
RTVSPost2010PropOp46
 70
     1
102
RTVSPost2010Prop47
 90
       50
102
RTVSPost2010PropOp47
 70
     1
102
RTVSPost2010Prop48
 90
       50
102
RTVSPost2010PropOp48
 70
     1
102
RTVSPost2010Prop49
280
     0
102
RTVSPost2010PropOp49
 70
     1
102
RTVSPost2010Prop50
 90
       50
102
RTVSPost2010PropOp50
 70
     1
102
RTVSPost2010Prop51ColorIndex
 90
      256
102
RTVSPost2010Prop51ColorRGB
 90
-16777216
102
RTVSPost2010PropOp51
 70
     0
102
RTVSPost2010Prop52
140
1.0
102
RTVSPost2010PropOp52
 70
     0
102
RTVSPost2010Prop53
 90
        2
102
RTVSPost2010PropOp53
 70
     1
102
RTVSPost2010Prop54
  1
strokes_ogs.tif
102
RTVSPost2010PropOp54
 70
     1
102
RTVSPost2010Prop55
280
     0
102
RTVSPost2010PropOp55
 70
     1
102
RTVSPost2010Prop56
140
1.0
102
RTVSPost2010PropOp56
 70
     1
102
RTVSPost2010Prop57
140
1.0
102
RTVSPost2010PropOp57
 70
     1
102
RTVSPropertyOp0
 70
     1
102
RTVSPropertyOp1
 70
     1
102
RTVSPropertyOp2
 70
     1
102
RTVSPropertyOp3
 70
     1
102
RTVSPropertyOp4
 70
     1
102
RTVSPropertyOp5
 70
     1
102
RTVSPropertyOp6
 70
     1
102
RTVSPropertyOp7
 70
     1
102
RTVSPropertyOp8
 70
     1
102
RTVSPropertyOp9
 70
     1
102
RTVSPropertyOp10
 70
     1
102
RTVSPropertyOp11
 70
     1
102
RTVSPropertyOp12
 70
     1
102
RTVSPropertyOp13
 70
     1
102
RTVSPropertyOp14
 70
     1
102
RTVSPropertyOp15
 70
     1
102
RTVSPropertyOp16
 70
     1
102
RTVSPropertyOp17
 70
     1
102
RTVSPropertyOp18
 70
     1
102
RTVSPropertyOp19
 70
     1
102
RTVSPropertyOp20
 70
     1
102
RTVSPropertyOp21
 70
     1
102
RTVSPropertyOp22
 70
     1
102
RTVSPropertyOp23
 70
     1
102
RTVSPropertyOp24
 70
     1
102
RTVSPropertyOp25
 70
     1
102
RTVSPropertyOp26
 70
     1
102
RTVSPropertyOp27
 70
     1
102
RTVSPropertyOp28
 70
     1
102
RTVSPropertyOp29
 70
     1
102
RTVSPropertyOp30
 70
     1
102
RTVSPropertyOp31
 70
     1
102
RTVSPropertyOp32
 70
     1
102
RTVSPropertyOp33
 70
     1
102
RTVSPropertyOp34
 70
     1
102
RTVSPropertyOp35
 70
     1
102
RTVSPropertyOp36
 70
     1
102
RTVSPropertyOp37
 70
     1
102
RTVSPropertyOp38
 70
     1
102
RTVSPropertyOp39
 70
     1
102
RTVSPropertyOp40
 70
     1
102
RTVSPropertyOp41
 70
     1
102
RTVSPropertyOp42
 70
     1
102
RTVSPropertyOp43
 70
     1
102
RTVSPropertyOp44
 70
     1
102
RTVSPropertyOp45
 70
     1
102
RTVSPropertyOp46
 70
     1
102
RTVSPropertyOp47
 70
     1
102
RTVSPropertyOp48
 70
     1
102
RTVSPropertyOp49
 70
     1
102
RTVSPropertyOp50
 70
     1
102
RTVSPropertyOp51
 70
     0
102
RTVSPropertyOp52
 70
     0
102
RTVSPropertyOp53
 70
     1
102
RTVSPropertyOp54
 70
     1
102
RTVSPropertyOp55
 70
     1
102
RTVSPropertyOp56
 70
     1
102
RTVSPropertyOp57
 70
     1
102
RTVSPropertyOp58
 70
     1
102
RTVSPropertyOp59
 70
     1
102
RTVSPropertyOp60
 70
     1
102
RTVSPropertyOp61
 70
     1
102
RTVSPropertyOp62
 70
     1
  0
ENDSEC
  0
EOF
